ISO-10303-21;
HEADER;
/* Generated by software containing ST-Developer
 * from STEP Tools, Inc. (www.steptools.com) 
 */

FILE_DESCRIPTION(
/* description */ (''),
/* implementation_level */ '2;1');

FILE_NAME(
/* name */ 'C:\\Users\\daud\\Desktop\\RBC20C.stp',
/* time_stamp */ '2017-05-01T09:51:15+10:00',
/* author */ ('daud'),
/* organization */ (''),
/* preprocessor_version */ 'ST-DEVELOPER v16.5',
/* originating_system */ 'Autodesk Inventor 2017',
/* authorisation */ '');

FILE_SCHEMA (('AUTOMOTIVE_DESIGN { 1 0 10303 214 3 1 1 }'));
ENDSEC;

DATA;
#10=MECHANICAL_DESIGN_GEOMETRIC_PRESENTATION_REPRESENTATION('',(#16),#78);
#11=DIMENSIONAL_EXPONENTS(0.,0.,0.,0.,0.,0.,0.);
#12=(
CONVERSION_BASED_UNIT('degree',#13)
NAMED_UNIT(#11)
PLANE_ANGLE_UNIT()
);
#13=PLANE_ANGLE_MEASURE_WITH_UNIT(PLANE_ANGLE_MEASURE(0.01745329252),#81);
#14=SHAPE_REPRESENTATION_RELATIONSHIP('SRR','None',#84,#15);
#15=ADVANCED_BREP_SHAPE_REPRESENTATION('',(#17),#77);
#16=STYLED_ITEM('',(#94),#17);
#17=MANIFOLD_SOLID_BREP('Solid1',#42);
#18=PLANE('',#54);
#19=FACE_BOUND('',#26,.T.);
#20=CYLINDRICAL_SURFACE('',#52,9.);
#21=FACE_OUTER_BOUND('',#24,.T.);
#22=FACE_OUTER_BOUND('',#25,.T.);
#23=FACE_OUTER_BOUND('',#27,.T.);
#24=EDGE_LOOP('',(#34));
#25=EDGE_LOOP('',(#35));
#26=EDGE_LOOP('',(#36));
#27=EDGE_LOOP('',(#37));
#28=CIRCLE('',#51,9.);
#29=CIRCLE('',#53,9.);
#30=VERTEX_POINT('',#69);
#31=VERTEX_POINT('',#72);
#32=EDGE_CURVE('',#30,#30,#28,.T.);
#33=EDGE_CURVE('',#31,#31,#29,.T.);
#34=ORIENTED_EDGE('',*,*,#32,.F.);
#35=ORIENTED_EDGE('',*,*,#32,.T.);
#36=ORIENTED_EDGE('',*,*,#33,.F.);
#37=ORIENTED_EDGE('',*,*,#33,.T.);
#38=SPHERICAL_SURFACE('',#50,20.);
#39=ADVANCED_FACE('',(#21),#38,.T.);
#40=ADVANCED_FACE('',(#22,#19),#20,.T.);
#41=ADVANCED_FACE('',(#23),#18,.T.);
#42=CLOSED_SHELL('',(#39,#40,#41));
#43=DATE_TIME_ROLE('creation_date');
#44=APPLIED_DATE_AND_TIME_ASSIGNMENT(#45,#43,(#86));
#45=DATE_AND_TIME(#46,#47);
#46=CALENDAR_DATE(2017,30,4);
#47=LOCAL_TIME(23,50,59.,#48);
#48=COORDINATED_UNIVERSAL_TIME_OFFSET(0,0,.BEHIND.);
#49=AXIS2_PLACEMENT_3D('placement',#67,#55,#56);
#50=AXIS2_PLACEMENT_3D('',#68,#57,#58);
#51=AXIS2_PLACEMENT_3D('',#70,#59,#60);
#52=AXIS2_PLACEMENT_3D('',#71,#61,#62);
#53=AXIS2_PLACEMENT_3D('',#73,#63,#64);
#54=AXIS2_PLACEMENT_3D('',#74,#65,#66);
#55=DIRECTION('axis',(0.,0.,1.));
#56=DIRECTION('refdir',(1.,0.,0.));
#57=DIRECTION('center_axis',(1.,6.12323399573677E-17,0.));
#58=DIRECTION('ref_axis',(0.,1.,1.77635683940025E-16));
#59=DIRECTION('center_axis',(0.,1.14578353528489E-16,-1.));
#60=DIRECTION('ref_axis',(0.,1.,1.14578353528489E-16));
#61=DIRECTION('center_axis',(0.,1.14578353528489E-16,-1.));
#62=DIRECTION('ref_axis',(0.,1.,1.14578353528489E-16));
#63=DIRECTION('center_axis',(0.,1.14578353528489E-16,-1.));
#64=DIRECTION('ref_axis',(0.,1.,1.14578353528489E-16));
#65=DIRECTION('center_axis',(0.,1.14578353528489E-16,-1.));
#66=DIRECTION('ref_axis',(0.,1.,0.));
#67=CARTESIAN_POINT('',(0.,0.,0.));
#68=CARTESIAN_POINT('Origin',(0.,-1.71757804234793E-16,-17.8605710994918));
#69=CARTESIAN_POINT('',(1.10218211923262E-15,-9.,-2.76592865773321E-15));
#70=CARTESIAN_POINT('Origin',(0.,-8.35338031084416E-16,-1.73472347597681E-15));
#71=CARTESIAN_POINT('Origin',(0.,8.67361737988404E-16,-14.8605710994918));
#72=CARTESIAN_POINT('',(0.,9.,-14.8605710994918));
#73=CARTESIAN_POINT('Origin',(0.,8.67361737988403E-16,-14.8605710994918));
#74=CARTESIAN_POINT('Origin',(0.,9.,-14.8605710994918));
#75=UNCERTAINTY_MEASURE_WITH_UNIT(LENGTH_MEASURE(0.01),#79,
'DISTANCE_ACCURACY_VALUE',
'Maximum model space distance between geometric entities at asserted c
onnectivities');
#76=UNCERTAINTY_MEASURE_WITH_UNIT(LENGTH_MEASURE(1.E-6),#79,
'DISTANCE_ACCURACY_VALUE',
'Maximum model space distance between geometric entities at asserted c
onnectivities');
#77=(
GEOMETRIC_REPRESENTATION_CONTEXT(3)
GLOBAL_UNCERTAINTY_ASSIGNED_CONTEXT((#75))
GLOBAL_UNIT_ASSIGNED_CONTEXT((#79,#81,#80))
REPRESENTATION_CONTEXT('','3D')
);
#78=(
GEOMETRIC_REPRESENTATION_CONTEXT(3)
GLOBAL_UNCERTAINTY_ASSIGNED_CONTEXT((#76))
GLOBAL_UNIT_ASSIGNED_CONTEXT((#79,#12,#80))
REPRESENTATION_CONTEXT('','3D')
);
#79=(
LENGTH_UNIT()
NAMED_UNIT(*)
SI_UNIT(.MILLI.,.METRE.)
);
#80=(
NAMED_UNIT(*)
SI_UNIT($,.STERADIAN.)
SOLID_ANGLE_UNIT()
);
#81=(
NAMED_UNIT(*)
PLANE_ANGLE_UNIT()
SI_UNIT($,.RADIAN.)
);
#82=SHAPE_DEFINITION_REPRESENTATION(#83,#84);
#83=PRODUCT_DEFINITION_SHAPE('',$,#86);
#84=SHAPE_REPRESENTATION('',(#49),#77);
#85=PRODUCT_DEFINITION_CONTEXT('part definition',#90,'design');
#86=PRODUCT_DEFINITION('RBC2015.step_Rb-Cap_20',
'RBC2015.step_Rb-Cap_20',#87,#85);
#87=PRODUCT_DEFINITION_FORMATION('',$,#92);
#88=PRODUCT_RELATED_PRODUCT_CATEGORY('RBC2015.step_Rb-Cap_20',
'RBC2015.step_Rb-Cap_20',(#92));
#89=APPLICATION_PROTOCOL_DEFINITION('international standard',
'automotive_design',2009,#90);
#90=APPLICATION_CONTEXT(
'Core Data for Automotive Mechanical Design Process');
#91=PRODUCT_CONTEXT('part definition',#90,'mechanical');
#92=PRODUCT('RBC2015.step_Rb-Cap_20','RBC2015.step_Rb-Cap_20',$,(#91));
#93=PRESENTATION_STYLE_ASSIGNMENT((#95));
#94=PRESENTATION_STYLE_ASSIGNMENT((#96));
#95=SURFACE_STYLE_USAGE(.BOTH.,#97);
#96=SURFACE_STYLE_USAGE(.BOTH.,#98);
#97=SURFACE_SIDE_STYLE('',(#99));
#98=SURFACE_SIDE_STYLE('',(#100));
#99=SURFACE_STYLE_FILL_AREA(#101);
#100=SURFACE_STYLE_FILL_AREA(#102);
#101=FILL_AREA_STYLE('',(#103));
#102=FILL_AREA_STYLE('',(#104));
#103=FILL_AREA_STYLE_COLOUR('',#105);
#104=FILL_AREA_STYLE_COLOUR('',#106);
#105=COLOUR_RGB('',0.749019607843137,0.749019607843137,0.749019607843137);
#106=COLOUR_RGB('',0.752941176470588,0.752941176470588,0.752941176470588);
ENDSEC;
END-ISO-10303-21;
