ISO-10303-21;
HEADER;
/* Generated by software containing ST-Developer
 * from STEP Tools, Inc. (www.steptools.com) 
 */

FILE_DESCRIPTION(
/* description */ ('1/2" BSPT SOCKET PLUG'),
/* implementation_level */ '2;1');

FILE_NAME(
/* name */ 'C:\\Users\\daud\\Desktop\\NXT010-24-4.stp',
/* time_stamp */ '2017-05-01T10:50:24+10:00',
/* author */ ('daud'),
/* organization */ (''),
/* preprocessor_version */ 'ST-DEVELOPER v16.5',
/* originating_system */ 'Autodesk Inventor 2017',
/* authorisation */ '');

FILE_SCHEMA (('AUTOMOTIVE_DESIGN { 1 0 10303 214 3 1 1 }'));
ENDSEC;

DATA;
#10=MECHANICAL_DESIGN_GEOMETRIC_PRESENTATION_REPRESENTATION('',(#13),#343);
#11=SHAPE_REPRESENTATION_RELATIONSHIP('SRR','None',#352,#12);
#12=ADVANCED_BREP_SHAPE_REPRESENTATION('',(#14),#342);
#13=STYLED_ITEM('',(#361),#14);
#14=MANIFOLD_SOLID_BREP('Solid1',#198);
#15=LINE('',#304,#27);
#16=LINE('',#306,#28);
#17=LINE('',#307,#29);
#18=LINE('',#310,#30);
#19=LINE('',#311,#31);
#20=LINE('',#314,#32);
#21=LINE('',#315,#33);
#22=LINE('',#318,#34);
#23=LINE('',#319,#35);
#24=LINE('',#322,#36);
#25=LINE('',#323,#37);
#26=LINE('',#325,#38);
#27=VECTOR('',#232,10.);
#28=VECTOR('',#233,10.);
#29=VECTOR('',#234,10.);
#30=VECTOR('',#237,10.);
#31=VECTOR('',#238,10.);
#32=VECTOR('',#241,10.);
#33=VECTOR('',#242,10.);
#34=VECTOR('',#245,10.);
#35=VECTOR('',#246,10.);
#36=VECTOR('',#249,10.);
#37=VECTOR('',#250,10.);
#38=VECTOR('',#253,10.);
#39=PLANE('',#208);
#40=PLANE('',#209);
#41=PLANE('',#210);
#42=PLANE('',#211);
#43=PLANE('',#212);
#44=PLANE('',#213);
#45=PLANE('',#214);
#46=PLANE('',#220);
#47=PLANE('',#223);
#48=FACE_BOUND('',#72,.T.);
#49=FACE_BOUND('',#81,.T.);
#50=FACE_BOUND('',#83,.T.);
#51=FACE_BOUND('',#86,.T.);
#52=FACE_BOUND('',#88,.T.);
#53=CIRCLE('',#207,6.);
#54=CIRCLE('',#216,10.0495259258696);
#55=CIRCLE('',#217,9.);
#56=CIRCLE('',#219,10.5504740741304);
#57=CIRCLE('',#222,9.6);
#58=FACE_OUTER_BOUND('',#71,.T.);
#59=FACE_OUTER_BOUND('',#73,.T.);
#60=FACE_OUTER_BOUND('',#74,.T.);
#61=FACE_OUTER_BOUND('',#75,.T.);
#62=FACE_OUTER_BOUND('',#76,.T.);
#63=FACE_OUTER_BOUND('',#77,.T.);
#64=FACE_OUTER_BOUND('',#78,.T.);
#65=FACE_OUTER_BOUND('',#79,.T.);
#66=FACE_OUTER_BOUND('',#80,.T.);
#67=FACE_OUTER_BOUND('',#82,.T.);
#68=FACE_OUTER_BOUND('',#84,.T.);
#69=FACE_OUTER_BOUND('',#85,.T.);
#70=FACE_OUTER_BOUND('',#87,.T.);
#71=EDGE_LOOP('',(#135,#136,#137,#138,#139,#140));
#72=EDGE_LOOP('',(#141));
#73=EDGE_LOOP('',(#142,#143,#144,#145));
#74=EDGE_LOOP('',(#146,#147,#148,#149));
#75=EDGE_LOOP('',(#150,#151,#152,#153));
#76=EDGE_LOOP('',(#154,#155,#156,#157));
#77=EDGE_LOOP('',(#158,#159,#160,#161));
#78=EDGE_LOOP('',(#162,#163,#164,#165));
#79=EDGE_LOOP('',(#166,#167,#168,#169,#170,#171));
#80=EDGE_LOOP('',(#172));
#81=EDGE_LOOP('',(#173));
#82=EDGE_LOOP('',(#174));
#83=EDGE_LOOP('',(#175));
#84=EDGE_LOOP('',(#176));
#85=EDGE_LOOP('',(#177));
#86=EDGE_LOOP('',(#178));
#87=EDGE_LOOP('',(#179));
#88=EDGE_LOOP('',(#180));
#89=(
BOUNDED_CURVE()
B_SPLINE_CURVE(2,(#278,#279,#280),.UNSPECIFIED.,.F.,.F.)
B_SPLINE_CURVE_WITH_KNOTS((3,3),(0.0193871969774616,0.637879872028741),
 .UNSPECIFIED.)
CURVE()
GEOMETRIC_REPRESENTATION_ITEM()
RATIONAL_B_SPLINE_CURVE((1.01010351529982,1.16636707293548,1.01010351529982))
REPRESENTATION_ITEM('')
);
#90=(
BOUNDED_CURVE()
B_SPLINE_CURVE(2,(#282,#283,#284),.UNSPECIFIED.,.F.,.F.)
B_SPLINE_CURVE_WITH_KNOTS((3,3),(0.0193871969774606,0.637879872028741),
 .UNSPECIFIED.)
CURVE()
GEOMETRIC_REPRESENTATION_ITEM()
RATIONAL_B_SPLINE_CURVE((1.01010351529982,1.16636707293548,1.01010351529982))
REPRESENTATION_ITEM('')
);
#91=(
BOUNDED_CURVE()
B_SPLINE_CURVE(2,(#286,#287,#288),.UNSPECIFIED.,.F.,.F.)
B_SPLINE_CURVE_WITH_KNOTS((3,3),(0.0193871969774597,0.637879872028739),
 .UNSPECIFIED.)
CURVE()
GEOMETRIC_REPRESENTATION_ITEM()
RATIONAL_B_SPLINE_CURVE((1.01010351529982,1.16636707293547,1.01010351529982))
REPRESENTATION_ITEM('')
);
#92=(
BOUNDED_CURVE()
B_SPLINE_CURVE(2,(#290,#291,#292),.UNSPECIFIED.,.F.,.F.)
B_SPLINE_CURVE_WITH_KNOTS((3,3),(0.0193871969774597,0.637879872028739),
 .UNSPECIFIED.)
CURVE()
GEOMETRIC_REPRESENTATION_ITEM()
RATIONAL_B_SPLINE_CURVE((1.01010351529982,1.16636707293548,1.01010351529982))
REPRESENTATION_ITEM('')
);
#93=(
BOUNDED_CURVE()
B_SPLINE_CURVE(2,(#294,#295,#296),.UNSPECIFIED.,.F.,.F.)
B_SPLINE_CURVE_WITH_KNOTS((3,3),(0.0193871969774608,0.63787987202874),
 .UNSPECIFIED.)
CURVE()
GEOMETRIC_REPRESENTATION_ITEM()
RATIONAL_B_SPLINE_CURVE((1.01010351529982,1.16636707293547,1.01010351529982))
REPRESENTATION_ITEM('')
);
#94=(
BOUNDED_CURVE()
B_SPLINE_CURVE(2,(#297,#298,#299),.UNSPECIFIED.,.F.,.F.)
B_SPLINE_CURVE_WITH_KNOTS((3,3),(0.0193871969774616,0.637879872028741),
 .UNSPECIFIED.)
CURVE()
GEOMETRIC_REPRESENTATION_ITEM()
RATIONAL_B_SPLINE_CURVE((1.01010351529982,1.16636707293547,1.01010351529982))
REPRESENTATION_ITEM('')
);
#95=VERTEX_POINT('',#276);
#96=VERTEX_POINT('',#277);
#97=VERTEX_POINT('',#281);
#98=VERTEX_POINT('',#285);
#99=VERTEX_POINT('',#289);
#100=VERTEX_POINT('',#293);
#101=VERTEX_POINT('',#300);
#102=VERTEX_POINT('',#303);
#103=VERTEX_POINT('',#305);
#104=VERTEX_POINT('',#309);
#105=VERTEX_POINT('',#313);
#106=VERTEX_POINT('',#317);
#107=VERTEX_POINT('',#321);
#108=VERTEX_POINT('',#328);
#109=VERTEX_POINT('',#330);
#110=VERTEX_POINT('',#333);
#111=VERTEX_POINT('',#337);
#112=EDGE_CURVE('',#95,#96,#89,.T.);
#113=EDGE_CURVE('',#97,#95,#90,.T.);
#114=EDGE_CURVE('',#98,#97,#91,.T.);
#115=EDGE_CURVE('',#99,#98,#92,.T.);
#116=EDGE_CURVE('',#100,#99,#93,.T.);
#117=EDGE_CURVE('',#96,#100,#94,.T.);
#118=EDGE_CURVE('',#101,#101,#53,.T.);
#119=EDGE_CURVE('',#98,#102,#15,.T.);
#120=EDGE_CURVE('',#103,#102,#16,.T.);
#121=EDGE_CURVE('',#99,#103,#17,.T.);
#122=EDGE_CURVE('',#97,#104,#18,.T.);
#123=EDGE_CURVE('',#102,#104,#19,.T.);
#124=EDGE_CURVE('',#95,#105,#20,.T.);
#125=EDGE_CURVE('',#104,#105,#21,.T.);
#126=EDGE_CURVE('',#96,#106,#22,.T.);
#127=EDGE_CURVE('',#105,#106,#23,.T.);
#128=EDGE_CURVE('',#100,#107,#24,.T.);
#129=EDGE_CURVE('',#106,#107,#25,.T.);
#130=EDGE_CURVE('',#107,#103,#26,.T.);
#131=EDGE_CURVE('',#108,#108,#54,.T.);
#132=EDGE_CURVE('',#109,#109,#55,.T.);
#133=EDGE_CURVE('',#110,#110,#56,.T.);
#134=EDGE_CURVE('',#111,#111,#57,.T.);
#135=ORIENTED_EDGE('',*,*,#112,.F.);
#136=ORIENTED_EDGE('',*,*,#113,.F.);
#137=ORIENTED_EDGE('',*,*,#114,.F.);
#138=ORIENTED_EDGE('',*,*,#115,.F.);
#139=ORIENTED_EDGE('',*,*,#116,.F.);
#140=ORIENTED_EDGE('',*,*,#117,.F.);
#141=ORIENTED_EDGE('',*,*,#118,.F.);
#142=ORIENTED_EDGE('',*,*,#115,.T.);
#143=ORIENTED_EDGE('',*,*,#119,.T.);
#144=ORIENTED_EDGE('',*,*,#120,.F.);
#145=ORIENTED_EDGE('',*,*,#121,.F.);
#146=ORIENTED_EDGE('',*,*,#114,.T.);
#147=ORIENTED_EDGE('',*,*,#122,.T.);
#148=ORIENTED_EDGE('',*,*,#123,.F.);
#149=ORIENTED_EDGE('',*,*,#119,.F.);
#150=ORIENTED_EDGE('',*,*,#113,.T.);
#151=ORIENTED_EDGE('',*,*,#124,.T.);
#152=ORIENTED_EDGE('',*,*,#125,.F.);
#153=ORIENTED_EDGE('',*,*,#122,.F.);
#154=ORIENTED_EDGE('',*,*,#112,.T.);
#155=ORIENTED_EDGE('',*,*,#126,.T.);
#156=ORIENTED_EDGE('',*,*,#127,.F.);
#157=ORIENTED_EDGE('',*,*,#124,.F.);
#158=ORIENTED_EDGE('',*,*,#117,.T.);
#159=ORIENTED_EDGE('',*,*,#128,.T.);
#160=ORIENTED_EDGE('',*,*,#129,.F.);
#161=ORIENTED_EDGE('',*,*,#126,.F.);
#162=ORIENTED_EDGE('',*,*,#116,.T.);
#163=ORIENTED_EDGE('',*,*,#121,.T.);
#164=ORIENTED_EDGE('',*,*,#130,.F.);
#165=ORIENTED_EDGE('',*,*,#128,.F.);
#166=ORIENTED_EDGE('',*,*,#127,.T.);
#167=ORIENTED_EDGE('',*,*,#129,.T.);
#168=ORIENTED_EDGE('',*,*,#130,.T.);
#169=ORIENTED_EDGE('',*,*,#120,.T.);
#170=ORIENTED_EDGE('',*,*,#123,.T.);
#171=ORIENTED_EDGE('',*,*,#125,.T.);
#172=ORIENTED_EDGE('',*,*,#131,.T.);
#173=ORIENTED_EDGE('',*,*,#132,.T.);
#174=ORIENTED_EDGE('',*,*,#133,.F.);
#175=ORIENTED_EDGE('',*,*,#131,.F.);
#176=ORIENTED_EDGE('',*,*,#132,.F.);
#177=ORIENTED_EDGE('',*,*,#134,.T.);
#178=ORIENTED_EDGE('',*,*,#133,.T.);
#179=ORIENTED_EDGE('',*,*,#134,.F.);
#180=ORIENTED_EDGE('',*,*,#118,.T.);
#181=CONICAL_SURFACE('',#206,5.,45.);
#182=CONICAL_SURFACE('',#215,9.52476296293481,46.419393920503);
#183=CONICAL_SURFACE('',#218,10.3,2.83878784100538);
#184=CONICAL_SURFACE('',#221,10.0752370370652,43.5806060794975);
#185=ADVANCED_FACE('',(#58,#48),#181,.F.);
#186=ADVANCED_FACE('',(#59),#39,.F.);
#187=ADVANCED_FACE('',(#60),#40,.F.);
#188=ADVANCED_FACE('',(#61),#41,.F.);
#189=ADVANCED_FACE('',(#62),#42,.F.);
#190=ADVANCED_FACE('',(#63),#43,.F.);
#191=ADVANCED_FACE('',(#64),#44,.F.);
#192=ADVANCED_FACE('',(#65),#45,.F.);
#193=ADVANCED_FACE('',(#66,#49),#182,.T.);
#194=ADVANCED_FACE('',(#67,#50),#183,.T.);
#195=ADVANCED_FACE('',(#68),#46,.T.);
#196=ADVANCED_FACE('',(#69,#51),#184,.T.);
#197=ADVANCED_FACE('',(#70,#52),#47,.T.);
#198=CLOSED_SHELL('',(#185,#186,#187,#188,#189,#190,#191,#192,#193,#194,
#195,#196,#197));
#199=DATE_TIME_ROLE('creation_date');
#200=APPLIED_DATE_AND_TIME_ASSIGNMENT(#201,#199,(#354));
#201=DATE_AND_TIME(#202,#203);
#202=CALENDAR_DATE(2011,13,12);
#203=LOCAL_TIME(3,2,39.,#204);
#204=COORDINATED_UNIVERSAL_TIME_OFFSET(0,0,.BEHIND.);
#205=AXIS2_PLACEMENT_3D('placement',#274,#224,#225);
#206=AXIS2_PLACEMENT_3D('',#275,#226,#227);
#207=AXIS2_PLACEMENT_3D('',#301,#228,#229);
#208=AXIS2_PLACEMENT_3D('',#302,#230,#231);
#209=AXIS2_PLACEMENT_3D('',#308,#235,#236);
#210=AXIS2_PLACEMENT_3D('',#312,#239,#240);
#211=AXIS2_PLACEMENT_3D('',#316,#243,#244);
#212=AXIS2_PLACEMENT_3D('',#320,#247,#248);
#213=AXIS2_PLACEMENT_3D('',#324,#251,#252);
#214=AXIS2_PLACEMENT_3D('',#326,#254,#255);
#215=AXIS2_PLACEMENT_3D('',#327,#256,#257);
#216=AXIS2_PLACEMENT_3D('',#329,#258,#259);
#217=AXIS2_PLACEMENT_3D('',#331,#260,#261);
#218=AXIS2_PLACEMENT_3D('',#332,#262,#263);
#219=AXIS2_PLACEMENT_3D('',#334,#264,#265);
#220=AXIS2_PLACEMENT_3D('',#335,#266,#267);
#221=AXIS2_PLACEMENT_3D('',#336,#268,#269);
#222=AXIS2_PLACEMENT_3D('',#338,#270,#271);
#223=AXIS2_PLACEMENT_3D('',#339,#272,#273);
#224=DIRECTION('axis',(0.,0.,1.));
#225=DIRECTION('refdir',(1.,0.,0.));
#226=DIRECTION('center_axis',(-1.,-2.44929359829471E-16,0.));
#227=DIRECTION('ref_axis',(-2.44949419881795E-16,1.,0.));
#228=DIRECTION('center_axis',(1.,1.37630953465929E-16,0.));
#229=DIRECTION('ref_axis',(-2.44949419881795E-16,1.,0.));
#230=DIRECTION('center_axis',(1.06831260354642E-16,-0.866025403784439,0.5));
#231=DIRECTION('ref_axis',(1.,0.,-2.13662520709285E-16));
#232=DIRECTION('',(1.,1.2335811384724E-16,0.));
#233=DIRECTION('',(-6.88154767329643E-17,0.5,0.866025403784439));
#234=DIRECTION('',(1.,1.2335811384724E-16,0.));
#235=DIRECTION('center_axis',(0.,0.,1.));
#236=DIRECTION('ref_axis',(1.,0.,0.));
#237=DIRECTION('',(1.,1.2335811384724E-16,0.));
#238=DIRECTION('',(-1.37630953465929E-16,1.,0.));
#239=DIRECTION('center_axis',(-1.06831260354642E-16,0.866025403784439,0.5));
#240=DIRECTION('ref_axis',(0.,-0.5,0.866025403784439));
#241=DIRECTION('',(1.,1.2335811384724E-16,0.));
#242=DIRECTION('',(-6.88154767329642E-17,0.5,-0.866025403784439));
#243=DIRECTION('center_axis',(-1.06831260354642E-16,0.866025403784438,-0.5));
#244=DIRECTION('ref_axis',(-1.,0.,2.13662520709285E-16));
#245=DIRECTION('',(1.,1.2335811384724E-16,0.));
#246=DIRECTION('',(6.88154767329643E-17,-0.5,-0.866025403784438));
#247=DIRECTION('center_axis',(4.65123627433132E-32,-3.77051507134032E-16,
-1.));
#248=DIRECTION('ref_axis',(-1.,0.,0.));
#249=DIRECTION('',(1.,1.2335811384724E-16,0.));
#250=DIRECTION('',(1.37630953465929E-16,-1.,3.77051507134032E-16));
#251=DIRECTION('center_axis',(1.06831260354642E-16,-0.866025403784439,-0.5));
#252=DIRECTION('ref_axis',(0.,0.5,-0.866025403784439));
#253=DIRECTION('',(6.88154767329642E-17,-0.5,0.866025403784439));
#254=DIRECTION('center_axis',(1.,1.37630953465928E-16,-4.46978795640354E-33));
#255=DIRECTION('ref_axis',(0.,0.,-1.));
#256=DIRECTION('center_axis',(-1.,-5.55793560844347E-16,-6.16112056979E-16));
#257=DIRECTION('ref_axis',(6.5024115876354E-17,-1.,-3.23029554802497E-17));
#258=DIRECTION('center_axis',(1.,1.35293055958681E-32,-2.20950327968647E-16));
#259=DIRECTION('ref_axis',(0.,-1.,-6.12323399573677E-17));
#260=DIRECTION('center_axis',(-1.,-1.37630953465929E-16,0.));
#261=DIRECTION('ref_axis',(1.37630953465929E-16,-1.,0.));
#262=DIRECTION('center_axis',(-1.,-1.37630953465929E-16,0.));
#263=DIRECTION('ref_axis',(0.,1.,0.));
#264=DIRECTION('center_axis',(-1.,0.,0.));
#265=DIRECTION('ref_axis',(0.,-1.,-6.12323399573677E-17));
#266=DIRECTION('center_axis',(1.,1.37630953465929E-16,0.));
#267=DIRECTION('ref_axis',(0.,0.,-1.));
#268=DIRECTION('center_axis',(1.,-1.11158712168869E-15,-6.46823972778952E-16));
#269=DIRECTION('ref_axis',(6.55695319332051E-17,-1.,-3.20602985737161E-17));
#270=DIRECTION('center_axis',(1.,1.37630953465929E-16,0.));
#271=DIRECTION('ref_axis',(1.37630953465929E-16,-1.,0.));
#272=DIRECTION('center_axis',(-1.,-1.37630953465929E-16,0.));
#273=DIRECTION('ref_axis',(0.,0.,1.));
#274=CARTESIAN_POINT('',(0.,0.,0.));
#275=CARTESIAN_POINT('Origin',(1.,2.44929359829471E-16,0.));
#276=CARTESIAN_POINT('',(0.111027254265825,5.88897274573418,4.2656703819867E-16));
#277=CARTESIAN_POINT('',(0.111027254265825,2.94448637286708,-5.1));
#278=CARTESIAN_POINT('Ctrl Pts',(0.111027254265825,5.88897274573418,4.2656703819867E-16));
#279=CARTESIAN_POINT('Ctrl Pts',(1.58327044069937,4.41672955930063,-2.55));
#280=CARTESIAN_POINT('Ctrl Pts',(0.111027254265825,2.94448637286708,-5.1));
#281=CARTESIAN_POINT('',(0.11102725426582,2.94448637286708,5.1));
#282=CARTESIAN_POINT('Ctrl Pts',(0.11102725426582,2.94448637286708,5.1));
#283=CARTESIAN_POINT('Ctrl Pts',(1.58327044069937,4.41672955930063,2.55));
#284=CARTESIAN_POINT('Ctrl Pts',(0.111027254265825,5.88897274573418,4.2656703819867E-16));
#285=CARTESIAN_POINT('',(0.111027254265815,-2.9444863728671,5.1));
#286=CARTESIAN_POINT('Ctrl Pts',(0.111027254265815,-2.9444863728671,5.1));
#287=CARTESIAN_POINT('Ctrl Pts',(1.58327044069936,-5.55111512312578E-15,
5.1));
#288=CARTESIAN_POINT('Ctrl Pts',(0.11102725426582,2.94448637286708,5.1));
#289=CARTESIAN_POINT('',(0.111027254265816,-5.88897274573419,4.10693656480396E-15));
#290=CARTESIAN_POINT('Ctrl Pts',(0.111027254265816,-5.88897274573419,4.10693656480396E-15));
#291=CARTESIAN_POINT('Ctrl Pts',(1.58327044069936,-4.41672955930065,2.55));
#292=CARTESIAN_POINT('Ctrl Pts',(0.111027254265815,-2.9444863728671,5.1));
#293=CARTESIAN_POINT('',(0.111027254265821,-2.9444863728671,-5.1));
#294=CARTESIAN_POINT('Ctrl Pts',(0.111027254265821,-2.9444863728671,-5.1));
#295=CARTESIAN_POINT('Ctrl Pts',(1.58327044069936,-4.41672955930064,-2.55));
#296=CARTESIAN_POINT('Ctrl Pts',(0.111027254265816,-5.88897274573419,4.10693656480396E-15));
#297=CARTESIAN_POINT('Ctrl Pts',(0.111027254265825,2.94448637286708,-5.1));
#298=CARTESIAN_POINT('Ctrl Pts',(1.58327044069937,-6.66133814775094E-15,
-5.1));
#299=CARTESIAN_POINT('Ctrl Pts',(0.111027254265821,-2.9444863728671,-5.1));
#300=CARTESIAN_POINT('',(-1.39896712614367E-16,6.,0.));
#301=CARTESIAN_POINT('Origin',(1.2490009027033E-15,3.08148791101958E-31,
0.));
#302=CARTESIAN_POINT('Origin',(1.53994898729968E-15,-5.88897274573419,4.10693656480396E-15));
#303=CARTESIAN_POINT('',(9.,-2.9444863728671,5.1));
#304=CARTESIAN_POINT('',(1.13469652033455E-15,-2.9444863728671,5.1));
#305=CARTESIAN_POINT('',(9.,-5.88897274573419,4.10693656480396E-15));
#306=CARTESIAN_POINT('',(9.,-2.9444863728671,5.1));
#307=CARTESIAN_POINT('',(1.53994898729968E-15,-5.88897274573419,4.10693656480396E-15));
#308=CARTESIAN_POINT('Origin',(1.13469652033455E-15,-2.9444863728671,5.1));
#309=CARTESIAN_POINT('',(9.,2.94448637286709,5.1));
#310=CARTESIAN_POINT('',(3.24191586404291E-16,2.94448637286708,5.1));
#311=CARTESIAN_POINT('',(9.,2.94448637286709,5.1));
#312=CARTESIAN_POINT('Origin',(3.24191586404291E-16,2.94448637286708,5.1));
#313=CARTESIAN_POINT('',(9.,5.88897274573418,4.2656703819867E-16));
#314=CARTESIAN_POINT('',(-8.10608805608405E-17,5.88897274573418,4.2656703819867E-16));
#315=CARTESIAN_POINT('',(9.,5.88897274573418,4.2656703819867E-16));
#316=CARTESIAN_POINT('Origin',(-8.10608805608405E-17,5.88897274573418,4.2656703819867E-16));
#317=CARTESIAN_POINT('',(9.,2.94448637286708,-5.1));
#318=CARTESIAN_POINT('',(3.24191586404291E-16,2.94448637286708,-5.1));
#319=CARTESIAN_POINT('',(9.,2.94448637286708,-5.1));
#320=CARTESIAN_POINT('Origin',(3.24191586404291E-16,2.94448637286708,-5.1));
#321=CARTESIAN_POINT('',(9.,-2.9444863728671,-5.1));
#322=CARTESIAN_POINT('',(1.13469652033455E-15,-2.9444863728671,-5.1));
#323=CARTESIAN_POINT('',(9.,-2.9444863728671,-5.1));
#324=CARTESIAN_POINT('Origin',(1.13469652033455E-15,-2.9444863728671,-5.1));
#325=CARTESIAN_POINT('',(9.,-5.88897274573419,4.10693656480396E-15));
#326=CARTESIAN_POINT('Origin',(9.,-5.68989300120393E-15,3.60822483003176E-15));
#327=CARTESIAN_POINT('Origin',(11.6006135808147,1.38777878078145E-15,-3.07677993951614E-16));
#328=CARTESIAN_POINT('',(11.1012271616295,10.0495259258696,1.23071197580646E-15));
#329=CARTESIAN_POINT('Origin',(11.1012271616295,1.11022302462516E-15,-6.15355987903228E-16));
#330=CARTESIAN_POINT('',(12.1,9.,-1.10218211923262E-15));
#331=CARTESIAN_POINT('Origin',(12.1,1.66533453693774E-15,0.));
#332=CARTESIAN_POINT('Origin',(6.05,8.32667268468868E-16,0.));
#333=CARTESIAN_POINT('',(0.998772838370545,10.5504740741304,-1.29206043043709E-15));
#334=CARTESIAN_POINT('Origin',(0.998772838370545,-1.11022302462516E-15,
-6.46030215218546E-16));
#335=CARTESIAN_POINT('Origin',(12.1,5.,0.));
#336=CARTESIAN_POINT('Origin',(0.499386419185273,-5.55111512312578E-16,
-3.23015107609273E-16));
#337=CARTESIAN_POINT('',(-6.27367762882191E-16,9.6,1.17566092718146E-15));
#338=CARTESIAN_POINT('Origin',(6.93889390390723E-16,3.85185988877447E-31,
0.));
#339=CARTESIAN_POINT('Origin',(0.,5.3,0.));
#340=UNCERTAINTY_MEASURE_WITH_UNIT(LENGTH_MEASURE(0.01),#344,
'DISTANCE_ACCURACY_VALUE',
'Maximum model space distance between geometric entities at asserted c
onnectivities');
#341=UNCERTAINTY_MEASURE_WITH_UNIT(LENGTH_MEASURE(1.E-6),#344,
'DISTANCE_ACCURACY_VALUE',
'Maximum model space distance between geometric entities at asserted c
onnectivities');
#342=(
GEOMETRIC_REPRESENTATION_CONTEXT(3)
GLOBAL_UNCERTAINTY_ASSIGNED_CONTEXT((#340))
GLOBAL_UNIT_ASSIGNED_CONTEXT((#344,#347,#345))
REPRESENTATION_CONTEXT('','3D')
);
#343=(
GEOMETRIC_REPRESENTATION_CONTEXT(3)
GLOBAL_UNCERTAINTY_ASSIGNED_CONTEXT((#341))
GLOBAL_UNIT_ASSIGNED_CONTEXT((#344,#347,#345))
REPRESENTATION_CONTEXT('','3D')
);
#344=(
LENGTH_UNIT()
NAMED_UNIT(*)
SI_UNIT(.MILLI.,.METRE.)
);
#345=(
NAMED_UNIT(*)
SI_UNIT($,.STERADIAN.)
SOLID_ANGLE_UNIT()
);
#346=DIMENSIONAL_EXPONENTS(0.,0.,0.,0.,0.,0.,0.);
#347=(
CONVERSION_BASED_UNIT('degree',#349)
NAMED_UNIT(#346)
PLANE_ANGLE_UNIT()
);
#348=(
NAMED_UNIT(*)
PLANE_ANGLE_UNIT()
SI_UNIT($,.RADIAN.)
);
#349=PLANE_ANGLE_MEASURE_WITH_UNIT(PLANE_ANGLE_MEASURE(0.01745329252),#348);
#350=SHAPE_DEFINITION_REPRESENTATION(#351,#352);
#351=PRODUCT_DEFINITION_SHAPE('',$,#354);
#352=SHAPE_REPRESENTATION('',(#205),#342);
#353=PRODUCT_DEFINITION_CONTEXT('part definition',#358,'design');
#354=PRODUCT_DEFINITION('NXT010-24-4','NXT010-24-4',#355,#353);
#355=PRODUCT_DEFINITION_FORMATION('',$,#360);
#356=PRODUCT_RELATED_PRODUCT_CATEGORY('NXT010-24-4','NXT010-24-4',(#360));
#357=APPLICATION_PROTOCOL_DEFINITION('international standard',
'automotive_design',2009,#358);
#358=APPLICATION_CONTEXT(
'Core Data for Automotive Mechanical Design Process');
#359=PRODUCT_CONTEXT('part definition',#358,'mechanical');
#360=PRODUCT('NXT010-24-4','NXT010-24-4','1/2" BSPT SOCKET PLUG',(#359));
#361=PRESENTATION_STYLE_ASSIGNMENT((#362));
#362=SURFACE_STYLE_USAGE(.BOTH.,#363);
#363=SURFACE_SIDE_STYLE('',(#364));
#364=SURFACE_STYLE_FILL_AREA(#365);
#365=FILL_AREA_STYLE('',(#366));
#366=FILL_AREA_STYLE_COLOUR('',#367);
#367=COLOUR_RGB('',0.63921568627451,0.63921568627451,0.662745098039216);
ENDSEC;
END-ISO-10303-21;
