ISO-10303-21;
HEADER;
/* Generated by software containing ST-Developer
 * from STEP Tools, Inc. (www.steptools.com) 
 */

FILE_DESCRIPTION(
/* description */ ('S.PLUG 1/4" BSPT'),
/* implementation_level */ '2;1');

FILE_NAME(
/* name */ 'C:\\Users\\daud\\Desktop\\NXT010-24-2.stp',
/* time_stamp */ '2017-05-01T11:43:00+10:00',
/* author */ ('daud'),
/* organization */ (''),
/* preprocessor_version */ 'ST-DEVELOPER v16.5',
/* originating_system */ 'Autodesk Inventor 2017',
/* authorisation */ '');

FILE_SCHEMA (('AUTOMOTIVE_DESIGN { 1 0 10303 214 3 1 1 }'));
ENDSEC;

DATA;
#10=MECHANICAL_DESIGN_GEOMETRIC_PRESENTATION_REPRESENTATION('',(#13),#303);
#11=SHAPE_REPRESENTATION_RELATIONSHIP('SRR','None',#312,#12);
#12=ADVANCED_BREP_SHAPE_REPRESENTATION('',(#14),#302);
#13=STYLED_ITEM('',(#321),#14);
#14=MANIFOLD_SOLID_BREP('Solid1',#182);
#15=LINE('',#265,#33);
#16=LINE('',#267,#34);
#17=LINE('',#269,#35);
#18=LINE('',#270,#36);
#19=LINE('',#273,#37);
#20=LINE('',#275,#38);
#21=LINE('',#276,#39);
#22=LINE('',#279,#40);
#23=LINE('',#281,#41);
#24=LINE('',#282,#42);
#25=LINE('',#285,#43);
#26=LINE('',#287,#44);
#27=LINE('',#288,#45);
#28=LINE('',#291,#46);
#29=LINE('',#293,#47);
#30=LINE('',#294,#48);
#31=LINE('',#296,#49);
#32=LINE('',#297,#50);
#33=VECTOR('',#220,10.);
#34=VECTOR('',#221,10.);
#35=VECTOR('',#222,10.);
#36=VECTOR('',#223,10.);
#37=VECTOR('',#226,10.);
#38=VECTOR('',#227,10.);
#39=VECTOR('',#228,10.);
#40=VECTOR('',#231,10.);
#41=VECTOR('',#232,10.);
#42=VECTOR('',#233,10.);
#43=VECTOR('',#236,10.);
#44=VECTOR('',#237,10.);
#45=VECTOR('',#238,10.);
#46=VECTOR('',#241,10.);
#47=VECTOR('',#242,10.);
#48=VECTOR('',#243,10.);
#49=VECTOR('',#246,10.);
#50=VECTOR('',#247,10.);
#51=PLANE('',#193);
#52=PLANE('',#196);
#53=PLANE('',#197);
#54=PLANE('',#198);
#55=PLANE('',#199);
#56=PLANE('',#200);
#57=PLANE('',#201);
#58=PLANE('',#202);
#59=PLANE('',#203);
#60=FACE_BOUND('',#75,.T.);
#61=FACE_BOUND('',#78,.T.);
#62=FACE_BOUND('',#87,.T.);
#63=FACE_OUTER_BOUND('',#74,.T.);
#64=FACE_OUTER_BOUND('',#76,.T.);
#65=FACE_OUTER_BOUND('',#77,.T.);
#66=FACE_OUTER_BOUND('',#79,.T.);
#67=FACE_OUTER_BOUND('',#80,.T.);
#68=FACE_OUTER_BOUND('',#81,.T.);
#69=FACE_OUTER_BOUND('',#82,.T.);
#70=FACE_OUTER_BOUND('',#83,.T.);
#71=FACE_OUTER_BOUND('',#84,.T.);
#72=FACE_OUTER_BOUND('',#85,.T.);
#73=FACE_OUTER_BOUND('',#86,.T.);
#74=EDGE_LOOP('',(#127));
#75=EDGE_LOOP('',(#128));
#76=EDGE_LOOP('',(#129));
#77=EDGE_LOOP('',(#130));
#78=EDGE_LOOP('',(#131));
#79=EDGE_LOOP('',(#132,#133,#134,#135));
#80=EDGE_LOOP('',(#136,#137,#138,#139));
#81=EDGE_LOOP('',(#140,#141,#142,#143));
#82=EDGE_LOOP('',(#144,#145,#146,#147));
#83=EDGE_LOOP('',(#148,#149,#150,#151));
#84=EDGE_LOOP('',(#152,#153,#154,#155));
#85=EDGE_LOOP('',(#156,#157,#158,#159,#160,#161));
#86=EDGE_LOOP('',(#162));
#87=EDGE_LOOP('',(#163,#164,#165,#166,#167,#168));
#88=CIRCLE('',#191,5.);
#89=CIRCLE('',#192,6.05233595624295);
#90=CIRCLE('',#195,6.41926223426435);
#91=VERTEX_POINT('',#254);
#92=VERTEX_POINT('',#256);
#93=VERTEX_POINT('',#260);
#94=VERTEX_POINT('',#263);
#95=VERTEX_POINT('',#264);
#96=VERTEX_POINT('',#266);
#97=VERTEX_POINT('',#268);
#98=VERTEX_POINT('',#272);
#99=VERTEX_POINT('',#274);
#100=VERTEX_POINT('',#278);
#101=VERTEX_POINT('',#280);
#102=VERTEX_POINT('',#284);
#103=VERTEX_POINT('',#286);
#104=VERTEX_POINT('',#290);
#105=VERTEX_POINT('',#292);
#106=EDGE_CURVE('',#91,#91,#88,.T.);
#107=EDGE_CURVE('',#92,#92,#89,.T.);
#108=EDGE_CURVE('',#93,#93,#90,.T.);
#109=EDGE_CURVE('',#94,#95,#15,.T.);
#110=EDGE_CURVE('',#94,#96,#16,.T.);
#111=EDGE_CURVE('',#96,#97,#17,.T.);
#112=EDGE_CURVE('',#95,#97,#18,.T.);
#113=EDGE_CURVE('',#98,#94,#19,.T.);
#114=EDGE_CURVE('',#98,#99,#20,.T.);
#115=EDGE_CURVE('',#99,#96,#21,.T.);
#116=EDGE_CURVE('',#100,#98,#22,.T.);
#117=EDGE_CURVE('',#100,#101,#23,.T.);
#118=EDGE_CURVE('',#101,#99,#24,.T.);
#119=EDGE_CURVE('',#102,#100,#25,.T.);
#120=EDGE_CURVE('',#102,#103,#26,.T.);
#121=EDGE_CURVE('',#103,#101,#27,.T.);
#122=EDGE_CURVE('',#104,#102,#28,.T.);
#123=EDGE_CURVE('',#104,#105,#29,.T.);
#124=EDGE_CURVE('',#105,#103,#30,.T.);
#125=EDGE_CURVE('',#95,#104,#31,.T.);
#126=EDGE_CURVE('',#97,#105,#32,.T.);
#127=ORIENTED_EDGE('',*,*,#106,.T.);
#128=ORIENTED_EDGE('',*,*,#107,.T.);
#129=ORIENTED_EDGE('',*,*,#106,.F.);
#130=ORIENTED_EDGE('',*,*,#108,.F.);
#131=ORIENTED_EDGE('',*,*,#107,.F.);
#132=ORIENTED_EDGE('',*,*,#109,.F.);
#133=ORIENTED_EDGE('',*,*,#110,.T.);
#134=ORIENTED_EDGE('',*,*,#111,.T.);
#135=ORIENTED_EDGE('',*,*,#112,.F.);
#136=ORIENTED_EDGE('',*,*,#113,.F.);
#137=ORIENTED_EDGE('',*,*,#114,.T.);
#138=ORIENTED_EDGE('',*,*,#115,.T.);
#139=ORIENTED_EDGE('',*,*,#110,.F.);
#140=ORIENTED_EDGE('',*,*,#116,.F.);
#141=ORIENTED_EDGE('',*,*,#117,.T.);
#142=ORIENTED_EDGE('',*,*,#118,.T.);
#143=ORIENTED_EDGE('',*,*,#114,.F.);
#144=ORIENTED_EDGE('',*,*,#119,.F.);
#145=ORIENTED_EDGE('',*,*,#120,.T.);
#146=ORIENTED_EDGE('',*,*,#121,.T.);
#147=ORIENTED_EDGE('',*,*,#117,.F.);
#148=ORIENTED_EDGE('',*,*,#122,.F.);
#149=ORIENTED_EDGE('',*,*,#123,.T.);
#150=ORIENTED_EDGE('',*,*,#124,.T.);
#151=ORIENTED_EDGE('',*,*,#120,.F.);
#152=ORIENTED_EDGE('',*,*,#125,.F.);
#153=ORIENTED_EDGE('',*,*,#112,.T.);
#154=ORIENTED_EDGE('',*,*,#126,.T.);
#155=ORIENTED_EDGE('',*,*,#123,.F.);
#156=ORIENTED_EDGE('',*,*,#126,.F.);
#157=ORIENTED_EDGE('',*,*,#111,.F.);
#158=ORIENTED_EDGE('',*,*,#115,.F.);
#159=ORIENTED_EDGE('',*,*,#118,.F.);
#160=ORIENTED_EDGE('',*,*,#121,.F.);
#161=ORIENTED_EDGE('',*,*,#124,.F.);
#162=ORIENTED_EDGE('',*,*,#108,.T.);
#163=ORIENTED_EDGE('',*,*,#109,.T.);
#164=ORIENTED_EDGE('',*,*,#125,.T.);
#165=ORIENTED_EDGE('',*,*,#122,.T.);
#166=ORIENTED_EDGE('',*,*,#119,.T.);
#167=ORIENTED_EDGE('',*,*,#116,.T.);
#168=ORIENTED_EDGE('',*,*,#113,.T.);
#169=CONICAL_SURFACE('',#190,5.52616797812147,46.5000000000001);
#170=CONICAL_SURFACE('',#194,6.20963111713218,3.00000000000016);
#171=ADVANCED_FACE('',(#63,#60),#169,.T.);
#172=ADVANCED_FACE('',(#64),#51,.T.);
#173=ADVANCED_FACE('',(#65,#61),#170,.T.);
#174=ADVANCED_FACE('',(#66),#52,.F.);
#175=ADVANCED_FACE('',(#67),#53,.F.);
#176=ADVANCED_FACE('',(#68),#54,.F.);
#177=ADVANCED_FACE('',(#69),#55,.F.);
#178=ADVANCED_FACE('',(#70),#56,.F.);
#179=ADVANCED_FACE('',(#71),#57,.F.);
#180=ADVANCED_FACE('',(#72),#58,.F.);
#181=ADVANCED_FACE('',(#73,#62),#59,.T.);
#182=CLOSED_SHELL('',(#171,#172,#173,#174,#175,#176,#177,#178,#179,#180,
#181));
#183=DATE_TIME_ROLE('creation_date');
#184=APPLIED_DATE_AND_TIME_ASSIGNMENT(#185,#183,(#314));
#185=DATE_AND_TIME(#186,#187);
#186=CALENDAR_DATE(2013,9,10);
#187=LOCAL_TIME(6,36,23.,#188);
#188=COORDINATED_UNIVERSAL_TIME_OFFSET(0,0,.BEHIND.);
#189=AXIS2_PLACEMENT_3D('placement',#252,#204,#205);
#190=AXIS2_PLACEMENT_3D('',#253,#206,#207);
#191=AXIS2_PLACEMENT_3D('',#255,#208,#209);
#192=AXIS2_PLACEMENT_3D('',#257,#210,#211);
#193=AXIS2_PLACEMENT_3D('',#258,#212,#213);
#194=AXIS2_PLACEMENT_3D('',#259,#214,#215);
#195=AXIS2_PLACEMENT_3D('',#261,#216,#217);
#196=AXIS2_PLACEMENT_3D('',#262,#218,#219);
#197=AXIS2_PLACEMENT_3D('',#271,#224,#225);
#198=AXIS2_PLACEMENT_3D('',#277,#229,#230);
#199=AXIS2_PLACEMENT_3D('',#283,#234,#235);
#200=AXIS2_PLACEMENT_3D('',#289,#239,#240);
#201=AXIS2_PLACEMENT_3D('',#295,#244,#245);
#202=AXIS2_PLACEMENT_3D('',#298,#248,#249);
#203=AXIS2_PLACEMENT_3D('',#299,#250,#251);
#204=DIRECTION('axis',(0.,0.,1.));
#205=DIRECTION('refdir',(1.,0.,0.));
#206=DIRECTION('center_axis',(-5.55873317374901E-16,1.,-3.7110728244178E-16));
#207=DIRECTION('ref_axis',(1.,6.27821478769633E-17,-3.35312547751079E-17));
#208=DIRECTION('center_axis',(-1.38777878078145E-16,1.,0.));
#209=DIRECTION('ref_axis',(1.,1.38777878078145E-16,0.));
#210=DIRECTION('center_axis',(0.,-1.,0.));
#211=DIRECTION('ref_axis',(1.,0.,-6.12323399573677E-17));
#212=DIRECTION('center_axis',(1.38777878078145E-16,-1.,0.));
#213=DIRECTION('ref_axis',(0.,0.,-1.));
#214=DIRECTION('center_axis',(-1.38777878078145E-16,1.,0.));
#215=DIRECTION('ref_axis',(-1.,0.,0.));
#216=DIRECTION('center_axis',(-1.38777878078145E-16,1.,0.));
#217=DIRECTION('ref_axis',(-1.,0.,0.));
#218=DIRECTION('center_axis',(0.866025403784439,1.60246890531964E-16,-0.5));
#219=DIRECTION('ref_axis',(0.5,0.,0.866025403784439));
#220=DIRECTION('',(0.5,6.93889390390722E-17,0.866025403784439));
#221=DIRECTION('',(1.85037170770859E-16,-1.,0.));
#222=DIRECTION('',(0.5,6.93889390390722E-17,0.866025403784439));
#223=DIRECTION('',(1.85037170770859E-16,-1.,0.));
#224=DIRECTION('center_axis',(-3.20493781063927E-16,-5.93032624977243E-32,
-1.));
#225=DIRECTION('ref_axis',(1.,1.77635683940025E-16,-3.10862446895044E-16));
#226=DIRECTION('',(1.,1.38777878078145E-16,-3.20493781063927E-16));
#227=DIRECTION('',(1.85037170770859E-16,-1.,0.));
#228=DIRECTION('',(1.,1.38777878078145E-16,-3.20493781063927E-16));
#229=DIRECTION('center_axis',(-0.866025403784439,-1.60246890531964E-16,
-0.5));
#230=DIRECTION('ref_axis',(0.5,0.,-0.866025403784439));
#231=DIRECTION('',(0.499999999999999,6.93889390390722E-17,-0.866025403784439));
#232=DIRECTION('',(1.85037170770859E-16,-1.,0.));
#233=DIRECTION('',(0.499999999999999,6.93889390390722E-17,-0.866025403784439));
#234=DIRECTION('center_axis',(-0.866025403784438,-1.60246890531964E-16,
0.5));
#235=DIRECTION('ref_axis',(-0.5,-8.88178419700125E-17,-0.866025403784438));
#236=DIRECTION('',(-0.5,-6.93889390390723E-17,-0.866025403784438));
#237=DIRECTION('',(1.85037170770859E-16,-1.,0.));
#238=DIRECTION('',(-0.5,-6.93889390390723E-17,-0.866025403784438));
#239=DIRECTION('center_axis',(1.60246890531964E-16,2.96516312488622E-32,
1.));
#240=DIRECTION('ref_axis',(-1.,-1.77635683940025E-16,1.77635683940025E-16));
#241=DIRECTION('',(-1.,-1.38777878078145E-16,1.60246890531964E-16));
#242=DIRECTION('',(1.85037170770859E-16,-1.,0.));
#243=DIRECTION('',(-1.,-1.38777878078145E-16,1.60246890531964E-16));
#244=DIRECTION('center_axis',(0.866025403784439,1.60246890531964E-16,0.5));
#245=DIRECTION('ref_axis',(-0.5,-8.88178419700125E-17,0.866025403784438));
#246=DIRECTION('',(-0.5,-6.93889390390723E-17,0.866025403784438));
#247=DIRECTION('',(-0.5,-6.93889390390723E-17,0.866025403784438));
#248=DIRECTION('center_axis',(1.85037170770859E-16,-1.,0.));
#249=DIRECTION('ref_axis',(0.,0.,-1.));
#250=DIRECTION('center_axis',(-1.38777878078145E-16,1.,0.));
#251=DIRECTION('ref_axis',(0.,0.,1.));
#252=CARTESIAN_POINT('',(0.,0.,0.));
#253=CARTESIAN_POINT('Origin',(-2.77555756156289E-16,0.499314767377286,
-1.85299346404434E-16));
#254=CARTESIAN_POINT('',(-5.,-4.16333634234434E-16,6.12323399573677E-16));
#255=CARTESIAN_POINT('Origin',(-4.00593428432545E-31,2.77555756156289E-16,
0.));
#256=CARTESIAN_POINT('',(-6.05233595624295,0.998629534754572,-7.41197385617736E-16));
#257=CARTESIAN_POINT('Origin',(-5.55111512312578E-16,0.998629534754572,
-3.70598692808868E-16));
#258=CARTESIAN_POINT('Origin',(-3.,-1.73472347597681E-16,0.));
#259=CARTESIAN_POINT('Origin',(-5.55111512312578E-16,4.,0.));
#260=CARTESIAN_POINT('',(-6.41926223426435,8.,0.));
#261=CARTESIAN_POINT('Origin',(-1.11022302462516E-15,8.,0.));
#262=CARTESIAN_POINT('Origin',(1.73205080756888,8.,-3.));
#263=CARTESIAN_POINT('',(1.73205080756888,8.,-3.));
#264=CARTESIAN_POINT('',(3.46410161513775,8.,-3.19588533664671E-16));
#265=CARTESIAN_POINT('',(1.76385961981958,8.,-2.94490552105337));
#266=CARTESIAN_POINT('',(1.73205080756888,2.,-3.));
#267=CARTESIAN_POINT('',(1.73205080756888,8.,-3.));
#268=CARTESIAN_POINT('',(3.46410161513776,2.,-3.19588533664671E-16));
#269=CARTESIAN_POINT('',(1.73205080756888,2.,-3.));
#270=CARTESIAN_POINT('',(3.46410161513775,8.,-3.19588533664671E-16));
#271=CARTESIAN_POINT('Origin',(-1.73205080756888,8.,-3.));
#272=CARTESIAN_POINT('',(-1.73205080756888,8.,-3.));
#273=CARTESIAN_POINT('',(-2.47084096235053,8.,-3.));
#274=CARTESIAN_POINT('',(-1.73205080756888,2.,-3.));
#275=CARTESIAN_POINT('',(-1.73205080756888,8.,-3.));
#276=CARTESIAN_POINT('',(-1.73205080756888,2.,-3.));
#277=CARTESIAN_POINT('Origin',(-3.46410161513776,8.,4.93060881262352E-16));
#278=CARTESIAN_POINT('',(-3.46410161513776,8.,4.93060881262352E-16));
#279=CARTESIAN_POINT('',(-3.43229280288706,8.,-0.0550944789466267));
#280=CARTESIAN_POINT('',(-3.46410161513775,2.,4.93060881262352E-16));
#281=CARTESIAN_POINT('',(-3.46410161513776,8.,4.93060881262352E-16));
#282=CARTESIAN_POINT('',(-3.46410161513775,2.,4.93060881262352E-16));
#283=CARTESIAN_POINT('Origin',(-1.73205080756888,8.,3.));
#284=CARTESIAN_POINT('',(-1.73205080756888,8.,3.));
#285=CARTESIAN_POINT('',(-2.56626739910262,8.,1.55509447894663));
#286=CARTESIAN_POINT('',(-1.73205080756888,2.,3.));
#287=CARTESIAN_POINT('',(-1.73205080756888,8.,3.));
#288=CARTESIAN_POINT('',(-1.73205080756888,2.,3.));
#289=CARTESIAN_POINT('Origin',(1.73205080756888,8.,3.));
#290=CARTESIAN_POINT('',(1.73205080756888,8.,3.));
#291=CARTESIAN_POINT('',(-0.73879015478165,8.,3.));
#292=CARTESIAN_POINT('',(1.73205080756888,2.,3.));
#293=CARTESIAN_POINT('',(1.73205080756888,8.,3.));
#294=CARTESIAN_POINT('',(1.73205080756888,2.,3.));
#295=CARTESIAN_POINT('Origin',(3.46410161513775,8.,-3.19588533664671E-16));
#296=CARTESIAN_POINT('',(2.62988502360401,8.,1.44490552105337));
#297=CARTESIAN_POINT('',(3.46410161513776,2.,-3.19588533664671E-16));
#298=CARTESIAN_POINT('Origin',(0.,2.,-1.10169737240725E-15));
#299=CARTESIAN_POINT('Origin',(-3.20963111713218,8.,0.));
#300=UNCERTAINTY_MEASURE_WITH_UNIT(LENGTH_MEASURE(0.01),#304,
'DISTANCE_ACCURACY_VALUE',
'Maximum model space distance between geometric entities at asserted c
onnectivities');
#301=UNCERTAINTY_MEASURE_WITH_UNIT(LENGTH_MEASURE(1.E-6),#304,
'DISTANCE_ACCURACY_VALUE',
'Maximum model space distance between geometric entities at asserted c
onnectivities');
#302=(
GEOMETRIC_REPRESENTATION_CONTEXT(3)
GLOBAL_UNCERTAINTY_ASSIGNED_CONTEXT((#300))
GLOBAL_UNIT_ASSIGNED_CONTEXT((#304,#307,#305))
REPRESENTATION_CONTEXT('','3D')
);
#303=(
GEOMETRIC_REPRESENTATION_CONTEXT(3)
GLOBAL_UNCERTAINTY_ASSIGNED_CONTEXT((#301))
GLOBAL_UNIT_ASSIGNED_CONTEXT((#304,#307,#305))
REPRESENTATION_CONTEXT('','3D')
);
#304=(
LENGTH_UNIT()
NAMED_UNIT(*)
SI_UNIT(.MILLI.,.METRE.)
);
#305=(
NAMED_UNIT(*)
SI_UNIT($,.STERADIAN.)
SOLID_ANGLE_UNIT()
);
#306=DIMENSIONAL_EXPONENTS(0.,0.,0.,0.,0.,0.,0.);
#307=(
CONVERSION_BASED_UNIT('degree',#309)
NAMED_UNIT(#306)
PLANE_ANGLE_UNIT()
);
#308=(
NAMED_UNIT(*)
PLANE_ANGLE_UNIT()
SI_UNIT($,.RADIAN.)
);
#309=PLANE_ANGLE_MEASURE_WITH_UNIT(PLANE_ANGLE_MEASURE(0.01745329252),#308);
#310=SHAPE_DEFINITION_REPRESENTATION(#311,#312);
#311=PRODUCT_DEFINITION_SHAPE('',$,#314);
#312=SHAPE_REPRESENTATION('',(#189),#302);
#313=PRODUCT_DEFINITION_CONTEXT('part definition',#318,'design');
#314=PRODUCT_DEFINITION('NXT010-24-2','NXT010-24-2',#315,#313);
#315=PRODUCT_DEFINITION_FORMATION('',$,#320);
#316=PRODUCT_RELATED_PRODUCT_CATEGORY('NXT010-24-2','NXT010-24-2',(#320));
#317=APPLICATION_PROTOCOL_DEFINITION('international standard',
'automotive_design',2009,#318);
#318=APPLICATION_CONTEXT(
'Core Data for Automotive Mechanical Design Process');
#319=PRODUCT_CONTEXT('part definition',#318,'mechanical');
#320=PRODUCT('NXT010-24-2','NXT010-24-2','S.PLUG 1/4" BSPT',(#319));
#321=PRESENTATION_STYLE_ASSIGNMENT((#322));
#322=SURFACE_STYLE_USAGE(.BOTH.,#323);
#323=SURFACE_SIDE_STYLE('',(#324));
#324=SURFACE_STYLE_FILL_AREA(#325);
#325=FILL_AREA_STYLE('',(#326));
#326=FILL_AREA_STYLE_COLOUR('',#327);
#327=COLOUR_RGB('',0.741176470588235,0.741176470588235,0.741176470588235);
ENDSEC;
END-ISO-10303-21;
