ISO-10303-21;
HEADER;
/* Generated by software containing ST-Developer
 * from STEP Tools, Inc. (www.steptools.com) 
 */

FILE_DESCRIPTION(
/* description */ ('Socket plug 1/8" BSPT'),
/* implementation_level */ '2;1');

FILE_NAME(
/* name */ 'C:\\Users\\daud\\Desktop\\NXT010-24-1.stp',
/* time_stamp */ '2017-05-01T10:50:40+10:00',
/* author */ ('daud'),
/* organization */ (''),
/* preprocessor_version */ 'ST-DEVELOPER v16.5',
/* originating_system */ 'Autodesk Inventor 2017',
/* authorisation */ '');

FILE_SCHEMA (('AUTOMOTIVE_DESIGN { 1 0 10303 214 3 1 1 }'));
ENDSEC;

DATA;
#10=MECHANICAL_DESIGN_GEOMETRIC_PRESENTATION_REPRESENTATION('',(#13),#323);
#11=SHAPE_REPRESENTATION_RELATIONSHIP('SRR','None',#332,#12);
#12=ADVANCED_BREP_SHAPE_REPRESENTATION('',(#14),#322);
#13=STYLED_ITEM('',(#341),#14);
#14=MANIFOLD_SOLID_BREP('Solid1',#193);
#15=LINE('',#281,#33);
#16=LINE('',#283,#34);
#17=LINE('',#285,#35);
#18=LINE('',#287,#36);
#19=LINE('',#289,#37);
#20=LINE('',#290,#38);
#21=LINE('',#298,#39);
#22=LINE('',#299,#40);
#23=LINE('',#300,#41);
#24=LINE('',#303,#42);
#25=LINE('',#304,#43);
#26=LINE('',#307,#44);
#27=LINE('',#308,#45);
#28=LINE('',#311,#46);
#29=LINE('',#312,#47);
#30=LINE('',#315,#48);
#31=LINE('',#316,#49);
#32=LINE('',#318,#50);
#33=VECTOR('',#231,10.);
#34=VECTOR('',#232,10.);
#35=VECTOR('',#233,10.);
#36=VECTOR('',#234,10.);
#37=VECTOR('',#235,10.);
#38=VECTOR('',#236,10.);
#39=VECTOR('',#245,10.);
#40=VECTOR('',#246,10.);
#41=VECTOR('',#247,10.);
#42=VECTOR('',#250,10.);
#43=VECTOR('',#251,10.);
#44=VECTOR('',#254,10.);
#45=VECTOR('',#255,10.);
#46=VECTOR('',#258,10.);
#47=VECTOR('',#259,10.);
#48=VECTOR('',#262,10.);
#49=VECTOR('',#263,10.);
#50=VECTOR('',#266,10.);
#51=PLANE('',#206);
#52=PLANE('',#209);
#53=PLANE('',#210);
#54=PLANE('',#211);
#55=PLANE('',#212);
#56=PLANE('',#213);
#57=PLANE('',#214);
#58=PLANE('',#215);
#59=PLANE('',#216);
#60=FACE_BOUND('',#77,.T.);
#61=FACE_BOUND('',#79,.T.);
#62=FACE_BOUND('',#81,.T.);
#63=FACE_BOUND('',#83,.T.);
#64=FACE_OUTER_BOUND('',#76,.T.);
#65=FACE_OUTER_BOUND('',#78,.T.);
#66=FACE_OUTER_BOUND('',#80,.T.);
#67=FACE_OUTER_BOUND('',#82,.T.);
#68=FACE_OUTER_BOUND('',#84,.T.);
#69=FACE_OUTER_BOUND('',#85,.T.);
#70=FACE_OUTER_BOUND('',#86,.T.);
#71=FACE_OUTER_BOUND('',#87,.T.);
#72=FACE_OUTER_BOUND('',#88,.T.);
#73=FACE_OUTER_BOUND('',#89,.T.);
#74=FACE_OUTER_BOUND('',#90,.T.);
#75=FACE_OUTER_BOUND('',#91,.T.);
#76=EDGE_LOOP('',(#134));
#77=EDGE_LOOP('',(#135));
#78=EDGE_LOOP('',(#136));
#79=EDGE_LOOP('',(#137));
#80=EDGE_LOOP('',(#138));
#81=EDGE_LOOP('',(#139,#140,#141,#142,#143,#144));
#82=EDGE_LOOP('',(#145));
#83=EDGE_LOOP('',(#146));
#84=EDGE_LOOP('',(#147));
#85=EDGE_LOOP('',(#148,#149,#150,#151));
#86=EDGE_LOOP('',(#152,#153,#154,#155));
#87=EDGE_LOOP('',(#156,#157,#158,#159));
#88=EDGE_LOOP('',(#160,#161,#162,#163));
#89=EDGE_LOOP('',(#164,#165,#166,#167));
#90=EDGE_LOOP('',(#168,#169,#170,#171));
#91=EDGE_LOOP('',(#172,#173,#174,#175,#176,#177));
#92=CIRCLE('',#202,4.7);
#93=CIRCLE('',#203,4.99350788200637);
#94=CIRCLE('',#205,4.85497388215762);
#95=CIRCLE('',#208,4.54848176416399);
#96=VERTEX_POINT('',#271);
#97=VERTEX_POINT('',#273);
#98=VERTEX_POINT('',#276);
#99=VERTEX_POINT('',#279);
#100=VERTEX_POINT('',#280);
#101=VERTEX_POINT('',#282);
#102=VERTEX_POINT('',#284);
#103=VERTEX_POINT('',#286);
#104=VERTEX_POINT('',#288);
#105=VERTEX_POINT('',#292);
#106=VERTEX_POINT('',#296);
#107=VERTEX_POINT('',#297);
#108=VERTEX_POINT('',#302);
#109=VERTEX_POINT('',#306);
#110=VERTEX_POINT('',#310);
#111=VERTEX_POINT('',#314);
#112=EDGE_CURVE('',#96,#96,#92,.T.);
#113=EDGE_CURVE('',#97,#97,#93,.T.);
#114=EDGE_CURVE('',#98,#98,#94,.T.);
#115=EDGE_CURVE('',#99,#100,#15,.T.);
#116=EDGE_CURVE('',#100,#101,#16,.T.);
#117=EDGE_CURVE('',#101,#102,#17,.T.);
#118=EDGE_CURVE('',#102,#103,#18,.T.);
#119=EDGE_CURVE('',#103,#104,#19,.T.);
#120=EDGE_CURVE('',#104,#99,#20,.T.);
#121=EDGE_CURVE('',#105,#105,#95,.T.);
#122=EDGE_CURVE('',#106,#107,#21,.T.);
#123=EDGE_CURVE('',#100,#106,#22,.T.);
#124=EDGE_CURVE('',#99,#107,#23,.T.);
#125=EDGE_CURVE('',#107,#108,#24,.T.);
#126=EDGE_CURVE('',#104,#108,#25,.T.);
#127=EDGE_CURVE('',#108,#109,#26,.T.);
#128=EDGE_CURVE('',#103,#109,#27,.T.);
#129=EDGE_CURVE('',#109,#110,#28,.T.);
#130=EDGE_CURVE('',#102,#110,#29,.T.);
#131=EDGE_CURVE('',#110,#111,#30,.T.);
#132=EDGE_CURVE('',#101,#111,#31,.T.);
#133=EDGE_CURVE('',#111,#106,#32,.T.);
#134=ORIENTED_EDGE('',*,*,#112,.T.);
#135=ORIENTED_EDGE('',*,*,#113,.T.);
#136=ORIENTED_EDGE('',*,*,#114,.F.);
#137=ORIENTED_EDGE('',*,*,#113,.F.);
#138=ORIENTED_EDGE('',*,*,#112,.F.);
#139=ORIENTED_EDGE('',*,*,#115,.T.);
#140=ORIENTED_EDGE('',*,*,#116,.T.);
#141=ORIENTED_EDGE('',*,*,#117,.T.);
#142=ORIENTED_EDGE('',*,*,#118,.T.);
#143=ORIENTED_EDGE('',*,*,#119,.T.);
#144=ORIENTED_EDGE('',*,*,#120,.T.);
#145=ORIENTED_EDGE('',*,*,#114,.T.);
#146=ORIENTED_EDGE('',*,*,#121,.T.);
#147=ORIENTED_EDGE('',*,*,#121,.F.);
#148=ORIENTED_EDGE('',*,*,#122,.F.);
#149=ORIENTED_EDGE('',*,*,#123,.F.);
#150=ORIENTED_EDGE('',*,*,#115,.F.);
#151=ORIENTED_EDGE('',*,*,#124,.T.);
#152=ORIENTED_EDGE('',*,*,#125,.F.);
#153=ORIENTED_EDGE('',*,*,#124,.F.);
#154=ORIENTED_EDGE('',*,*,#120,.F.);
#155=ORIENTED_EDGE('',*,*,#126,.T.);
#156=ORIENTED_EDGE('',*,*,#127,.F.);
#157=ORIENTED_EDGE('',*,*,#126,.F.);
#158=ORIENTED_EDGE('',*,*,#119,.F.);
#159=ORIENTED_EDGE('',*,*,#128,.T.);
#160=ORIENTED_EDGE('',*,*,#129,.F.);
#161=ORIENTED_EDGE('',*,*,#128,.F.);
#162=ORIENTED_EDGE('',*,*,#118,.F.);
#163=ORIENTED_EDGE('',*,*,#130,.T.);
#164=ORIENTED_EDGE('',*,*,#131,.F.);
#165=ORIENTED_EDGE('',*,*,#130,.F.);
#166=ORIENTED_EDGE('',*,*,#117,.F.);
#167=ORIENTED_EDGE('',*,*,#132,.T.);
#168=ORIENTED_EDGE('',*,*,#133,.F.);
#169=ORIENTED_EDGE('',*,*,#132,.F.);
#170=ORIENTED_EDGE('',*,*,#116,.F.);
#171=ORIENTED_EDGE('',*,*,#123,.T.);
#172=ORIENTED_EDGE('',*,*,#122,.T.);
#173=ORIENTED_EDGE('',*,*,#125,.T.);
#174=ORIENTED_EDGE('',*,*,#127,.T.);
#175=ORIENTED_EDGE('',*,*,#129,.T.);
#176=ORIENTED_EDGE('',*,*,#131,.T.);
#177=ORIENTED_EDGE('',*,*,#133,.T.);
#178=CONICAL_SURFACE('',#201,4.84675394100319,44.3799999999999);
#179=CONICAL_SURFACE('',#204,4.92424088208199,1.24);
#180=CONICAL_SURFACE('',#207,4.7017278231608,45.62);
#181=ADVANCED_FACE('',(#64,#60),#178,.T.);
#182=ADVANCED_FACE('',(#65,#61),#179,.T.);
#183=ADVANCED_FACE('',(#66,#62),#51,.F.);
#184=ADVANCED_FACE('',(#67,#63),#180,.T.);
#185=ADVANCED_FACE('',(#68),#52,.T.);
#186=ADVANCED_FACE('',(#69),#53,.F.);
#187=ADVANCED_FACE('',(#70),#54,.F.);
#188=ADVANCED_FACE('',(#71),#55,.F.);
#189=ADVANCED_FACE('',(#72),#56,.F.);
#190=ADVANCED_FACE('',(#73),#57,.F.);
#191=ADVANCED_FACE('',(#74),#58,.F.);
#192=ADVANCED_FACE('',(#75),#59,.T.);
#193=CLOSED_SHELL('',(#181,#182,#183,#184,#185,#186,#187,#188,#189,#190,
#191,#192));
#194=DATE_TIME_ROLE('creation_date');
#195=APPLIED_DATE_AND_TIME_ASSIGNMENT(#196,#194,(#334));
#196=DATE_AND_TIME(#197,#198);
#197=CALENDAR_DATE(2010,24,10);
#198=LOCAL_TIME(21,29,37.,#199);
#199=COORDINATED_UNIVERSAL_TIME_OFFSET(0,0,.BEHIND.);
#200=AXIS2_PLACEMENT_3D('placement',#269,#217,#218);
#201=AXIS2_PLACEMENT_3D('',#270,#219,#220);
#202=AXIS2_PLACEMENT_3D('',#272,#221,#222);
#203=AXIS2_PLACEMENT_3D('',#274,#223,#224);
#204=AXIS2_PLACEMENT_3D('',#275,#225,#226);
#205=AXIS2_PLACEMENT_3D('',#277,#227,#228);
#206=AXIS2_PLACEMENT_3D('',#278,#229,#230);
#207=AXIS2_PLACEMENT_3D('',#291,#237,#238);
#208=AXIS2_PLACEMENT_3D('',#293,#239,#240);
#209=AXIS2_PLACEMENT_3D('',#294,#241,#242);
#210=AXIS2_PLACEMENT_3D('',#295,#243,#244);
#211=AXIS2_PLACEMENT_3D('',#301,#248,#249);
#212=AXIS2_PLACEMENT_3D('',#305,#252,#253);
#213=AXIS2_PLACEMENT_3D('',#309,#256,#257);
#214=AXIS2_PLACEMENT_3D('',#313,#260,#261);
#215=AXIS2_PLACEMENT_3D('',#317,#264,#265);
#216=AXIS2_PLACEMENT_3D('',#319,#267,#268);
#217=DIRECTION('axis',(0.,0.,1.));
#218=DIRECTION('refdir',(1.,0.,0.));
#219=DIRECTION('center_axis',(-1.01945264353531E-15,0.,-1.));
#220=DIRECTION('ref_axis',(3.15431911680173E-17,-1.,0.));
#221=DIRECTION('center_axis',(0.,0.,-1.));
#222=DIRECTION('ref_axis',(0.,-1.,0.));
#223=DIRECTION('center_axis',(0.,0.,1.));
#224=DIRECTION('ref_axis',(6.12323399573677E-17,-1.,0.));
#225=DIRECTION('center_axis',(0.,0.,1.));
#226=DIRECTION('ref_axis',(0.,-1.,0.));
#227=DIRECTION('center_axis',(0.,0.,-1.));
#228=DIRECTION('ref_axis',(-6.12323399573677E-17,1.,0.));
#229=DIRECTION('center_axis',(0.,0.,-1.));
#230=DIRECTION('ref_axis',(-1.,0.,0.));
#231=DIRECTION('',(-0.717642311408018,-0.696411884502955,0.));
#232=DIRECTION('',(-0.961931539180963,0.273290530258449,0.));
#233=DIRECTION('',(-0.244289227772945,0.969702414761404,0.));
#234=DIRECTION('',(0.717642311408018,0.696411884502956,0.));
#235=DIRECTION('',(0.961931539180963,-0.273290530258448,0.));
#236=DIRECTION('',(0.244289227772945,-0.969702414761404,0.));
#237=DIRECTION('center_axis',(-9.91170150405738E-16,0.,1.));
#238=DIRECTION('ref_axis',(-3.1614060024062E-17,1.,0.));
#239=DIRECTION('center_axis',(0.,0.,1.));
#240=DIRECTION('ref_axis',(0.,1.,0.));
#241=DIRECTION('center_axis',(0.,0.,-1.));
#242=DIRECTION('ref_axis',(-1.,0.,0.));
#243=DIRECTION('center_axis',(0.696411884502955,-0.717642311408018,0.));
#244=DIRECTION('ref_axis',(0.,0.,-1.));
#245=DIRECTION('',(0.717642311408018,0.696411884502955,0.));
#246=DIRECTION('',(0.,0.,-1.));
#247=DIRECTION('',(0.,0.,-1.));
#248=DIRECTION('center_axis',(0.969702414761404,0.244289227772945,0.));
#249=DIRECTION('ref_axis',(0.,0.,-1.));
#250=DIRECTION('',(-0.244289227772945,0.969702414761404,0.));
#251=DIRECTION('',(0.,0.,-1.));
#252=DIRECTION('center_axis',(0.273290530258448,0.961931539180963,0.));
#253=DIRECTION('ref_axis',(0.,0.,1.));
#254=DIRECTION('',(-0.961931539180963,0.273290530258448,0.));
#255=DIRECTION('',(0.,0.,-1.));
#256=DIRECTION('center_axis',(-0.696411884502956,0.717642311408018,0.));
#257=DIRECTION('ref_axis',(0.,0.,1.));
#258=DIRECTION('',(-0.717642311408018,-0.696411884502956,0.));
#259=DIRECTION('',(0.,0.,-1.));
#260=DIRECTION('center_axis',(-0.969702414761404,-0.244289227772945,0.));
#261=DIRECTION('ref_axis',(0.,0.,1.));
#262=DIRECTION('',(0.244289227772945,-0.969702414761404,0.));
#263=DIRECTION('',(0.,0.,-1.));
#264=DIRECTION('center_axis',(-0.273290530258449,-0.961931539180963,0.));
#265=DIRECTION('ref_axis',(0.,0.,-1.));
#266=DIRECTION('',(0.961931539180963,-0.273290530258449,0.));
#267=DIRECTION('center_axis',(7.97127411712849E-32,-3.89706734615171E-31,
1.));
#268=DIRECTION('ref_axis',(1.,0.,0.));
#269=CARTESIAN_POINT('',(0.,0.,0.));
#270=CARTESIAN_POINT('Origin',(-1.52882086105405E-16,0.,6.85003512710975));
#271=CARTESIAN_POINT('',(5.75583995599256E-16,4.7,7.));
#272=CARTESIAN_POINT('Origin',(0.,0.,7.));
#273=CARTESIAN_POINT('',(-1.22305668884324E-15,4.99350788200637,6.7000702542195));
#274=CARTESIAN_POINT('Origin',(-3.05764172210809E-16,0.,6.7000702542195));
#275=CARTESIAN_POINT('Origin',(0.,0.,3.5));
#276=CARTESIAN_POINT('',(-5.94562822472832E-16,-4.85497388215762,0.299929745780503));
#277=CARTESIAN_POINT('Origin',(-2.97281411236416E-16,0.,0.299929745780503));
#278=CARTESIAN_POINT('Origin',(0.,0.,7.));
#279=CARTESIAN_POINT('',(2.7768571654406,-0.788921806058456,7.));
#280=CARTESIAN_POINT('',(0.705202257074177,-2.79928975098163,7.));
#281=CARTESIAN_POINT('',(1.22311598416578,-2.29669776475084,7.));
#282=CARTESIAN_POINT('',(-2.07165490836642,-2.01036794492318,7.));
#283=CARTESIAN_POINT('',(-1.37744061700627,-2.20759839643779,7.));
#284=CARTESIAN_POINT('',(-2.7768571654406,0.788921806058454,7.));
#285=CARTESIAN_POINT('',(-2.60055660117205,0.089099368313046,7.));
#286=CARTESIAN_POINT('',(-0.705202257074178,2.79928975098163,7.));
#287=CARTESIAN_POINT('',(-1.22311598416578,2.29669776475084,7.));
#288=CARTESIAN_POINT('',(2.07165490836642,2.01036794492318,7.));
#289=CARTESIAN_POINT('',(1.37744061700627,2.20759839643779,7.));
#290=CARTESIAN_POINT('',(2.60055660117205,-0.0890993683130463,7.));
#291=CARTESIAN_POINT('Origin',(-1.48640705618208E-16,0.,0.149964872890252));
#292=CARTESIAN_POINT('',(5.57028363346353E-16,-4.54848176416399,0.));
#293=CARTESIAN_POINT('Origin',(0.,0.,0.));
#294=CARTESIAN_POINT('Origin',(0.,0.,0.));
#295=CARTESIAN_POINT('Origin',(0.705202257074177,-2.79928975098163,7.));
#296=CARTESIAN_POINT('',(0.705202257074177,-2.79928975098163,3.));
#297=CARTESIAN_POINT('',(2.7768571654406,-0.788921806058456,3.));
#298=CARTESIAN_POINT('',(2.7768571654406,-0.788921806058456,3.));
#299=CARTESIAN_POINT('',(0.705202257074177,-2.79928975098163,7.));
#300=CARTESIAN_POINT('',(2.7768571654406,-0.788921806058456,7.));
#301=CARTESIAN_POINT('Origin',(2.7768571654406,-0.788921806058456,7.));
#302=CARTESIAN_POINT('',(2.07165490836642,2.01036794492318,3.));
#303=CARTESIAN_POINT('',(2.07165490836642,2.01036794492318,3.));
#304=CARTESIAN_POINT('',(2.07165490836642,2.01036794492318,7.));
#305=CARTESIAN_POINT('Origin',(2.07165490836642,2.01036794492318,7.));
#306=CARTESIAN_POINT('',(-0.705202257074178,2.79928975098163,3.));
#307=CARTESIAN_POINT('',(-0.705202257074178,2.79928975098163,3.));
#308=CARTESIAN_POINT('',(-0.705202257074178,2.79928975098163,7.));
#309=CARTESIAN_POINT('Origin',(-0.705202257074178,2.79928975098163,7.));
#310=CARTESIAN_POINT('',(-2.7768571654406,0.788921806058454,3.));
#311=CARTESIAN_POINT('',(-2.7768571654406,0.788921806058454,3.));
#312=CARTESIAN_POINT('',(-2.7768571654406,0.788921806058454,7.));
#313=CARTESIAN_POINT('Origin',(-2.7768571654406,0.788921806058454,7.));
#314=CARTESIAN_POINT('',(-2.07165490836642,-2.01036794492318,3.));
#315=CARTESIAN_POINT('',(-2.07165490836642,-2.01036794492318,3.));
#316=CARTESIAN_POINT('',(-2.07165490836642,-2.01036794492318,7.));
#317=CARTESIAN_POINT('Origin',(-2.07165490836642,-2.01036794492318,7.));
#318=CARTESIAN_POINT('',(0.705202257074177,-2.79928975098163,3.));
#319=CARTESIAN_POINT('Origin',(-4.16333634234434E-16,-2.08166817117217E-16,
3.));
#320=UNCERTAINTY_MEASURE_WITH_UNIT(LENGTH_MEASURE(0.01),#324,
'DISTANCE_ACCURACY_VALUE',
'Maximum model space distance between geometric entities at asserted c
onnectivities');
#321=UNCERTAINTY_MEASURE_WITH_UNIT(LENGTH_MEASURE(1.E-6),#324,
'DISTANCE_ACCURACY_VALUE',
'Maximum model space distance between geometric entities at asserted c
onnectivities');
#322=(
GEOMETRIC_REPRESENTATION_CONTEXT(3)
GLOBAL_UNCERTAINTY_ASSIGNED_CONTEXT((#320))
GLOBAL_UNIT_ASSIGNED_CONTEXT((#324,#327,#325))
REPRESENTATION_CONTEXT('','3D')
);
#323=(
GEOMETRIC_REPRESENTATION_CONTEXT(3)
GLOBAL_UNCERTAINTY_ASSIGNED_CONTEXT((#321))
GLOBAL_UNIT_ASSIGNED_CONTEXT((#324,#327,#325))
REPRESENTATION_CONTEXT('','3D')
);
#324=(
LENGTH_UNIT()
NAMED_UNIT(*)
SI_UNIT(.MILLI.,.METRE.)
);
#325=(
NAMED_UNIT(*)
SI_UNIT($,.STERADIAN.)
SOLID_ANGLE_UNIT()
);
#326=DIMENSIONAL_EXPONENTS(0.,0.,0.,0.,0.,0.,0.);
#327=(
CONVERSION_BASED_UNIT('degree',#329)
NAMED_UNIT(#326)
PLANE_ANGLE_UNIT()
);
#328=(
NAMED_UNIT(*)
PLANE_ANGLE_UNIT()
SI_UNIT($,.RADIAN.)
);
#329=PLANE_ANGLE_MEASURE_WITH_UNIT(PLANE_ANGLE_MEASURE(0.01745329252),#328);
#330=SHAPE_DEFINITION_REPRESENTATION(#331,#332);
#331=PRODUCT_DEFINITION_SHAPE('',$,#334);
#332=SHAPE_REPRESENTATION('',(#200),#322);
#333=PRODUCT_DEFINITION_CONTEXT('part definition',#338,'design');
#334=PRODUCT_DEFINITION('NXT010-24-1','NXT010-24-1',#335,#333);
#335=PRODUCT_DEFINITION_FORMATION('',$,#340);
#336=PRODUCT_RELATED_PRODUCT_CATEGORY('NXT010-24-1','NXT010-24-1',(#340));
#337=APPLICATION_PROTOCOL_DEFINITION('international standard',
'automotive_design',2009,#338);
#338=APPLICATION_CONTEXT(
'Core Data for Automotive Mechanical Design Process');
#339=PRODUCT_CONTEXT('part definition',#338,'mechanical');
#340=PRODUCT('NXT010-24-1','NXT010-24-1','Socket plug 1/8" BSPT',(#339));
#341=PRESENTATION_STYLE_ASSIGNMENT((#342));
#342=SURFACE_STYLE_USAGE(.BOTH.,#343);
#343=SURFACE_SIDE_STYLE('',(#344));
#344=SURFACE_STYLE_FILL_AREA(#345);
#345=FILL_AREA_STYLE('',(#346));
#346=FILL_AREA_STYLE_COLOUR('',#347);
#347=COLOUR_RGB('',0.752941176470588,0.752941176470588,0.752941176470588);
ENDSEC;
END-ISO-10303-21;
