ISO-10303-21;
HEADER;
/* Generated by software containing ST-Developer
 * from STEP Tools, Inc. (www.steptools.com) 
 */

FILE_DESCRIPTION(
/* description */ ('C85 GKM-Double Knuckle Joint'),
/* implementation_level */ '2;1');

FILE_NAME(
/* name */ 'C:\\Users\\daud\\Desktop\\GKM8-16-SUS-CEJ00592.stp',
/* time_stamp */ '2018-05-03T10:04:47+10:00',
/* author */ ('daud'),
/* organization */ ('SMC'),
/* preprocessor_version */ 'ST-DEVELOPER v16.13',
/* originating_system */ 'Autodesk Inventor 2018',
/* authorisation */ '');

FILE_SCHEMA (('AUTOMOTIVE_DESIGN { 1 0 10303 214 3 1 1 }'));
ENDSEC;

DATA;
#10=MECHANICAL_DESIGN_GEOMETRIC_PRESENTATION_REPRESENTATION('',(#13),#573);
#11=SHAPE_REPRESENTATION_RELATIONSHIP('SRR','None',#580,#12);
#12=ADVANCED_BREP_SHAPE_REPRESENTATION('',(#14),#572);
#13=STYLED_ITEM('',(#589),#14);
#14=MANIFOLD_SOLID_BREP('Solid1',#322);
#15=(
BOUNDED_CURVE()
B_SPLINE_CURVE(2,(#524,#525,#526),.UNSPECIFIED.,.F.,.F.)
B_SPLINE_CURVE_WITH_KNOTS((3,3),(0.,0.449040624929623),.UNSPECIFIED.)
CURVE()
GEOMETRIC_REPRESENTATION_ITEM()
RATIONAL_B_SPLINE_CURVE((1.,1.00583608686196,1.))
REPRESENTATION_ITEM('')
);
#16=(
BOUNDED_CURVE()
B_SPLINE_CURVE(2,(#530,#531,#532),.UNSPECIFIED.,.F.,.F.)
B_SPLINE_CURVE_WITH_KNOTS((3,3),(0.,0.449040624929623),.UNSPECIFIED.)
CURVE()
GEOMETRIC_REPRESENTATION_ITEM()
RATIONAL_B_SPLINE_CURVE((1.,1.00583608686196,1.))
REPRESENTATION_ITEM('')
);
#17=(
BOUNDED_CURVE()
B_SPLINE_CURVE(2,(#537,#538,#539),.UNSPECIFIED.,.F.,.F.)
B_SPLINE_CURVE_WITH_KNOTS((3,3),(0.,0.449040624929623),.UNSPECIFIED.)
CURVE()
GEOMETRIC_REPRESENTATION_ITEM()
RATIONAL_B_SPLINE_CURVE((1.,1.00583608686196,1.))
REPRESENTATION_ITEM('')
);
#18=(
BOUNDED_CURVE()
B_SPLINE_CURVE(2,(#543,#544,#545),.UNSPECIFIED.,.F.,.F.)
B_SPLINE_CURVE_WITH_KNOTS((3,3),(0.,0.449040624929623),.UNSPECIFIED.)
CURVE()
GEOMETRIC_REPRESENTATION_ITEM()
RATIONAL_B_SPLINE_CURVE((1.,1.00583608686196,1.))
REPRESENTATION_ITEM('')
);
#19=LINE('',#515,#35);
#20=LINE('',#517,#36);
#21=LINE('',#519,#37);
#22=LINE('',#520,#38);
#23=LINE('',#548,#39);
#24=LINE('',#549,#40);
#25=LINE('',#552,#41);
#26=LINE('',#554,#42);
#27=LINE('',#555,#43);
#28=LINE('',#558,#44);
#29=LINE('',#560,#45);
#30=LINE('',#561,#46);
#31=LINE('',#563,#47);
#32=LINE('',#564,#48);
#33=LINE('',#566,#49);
#34=LINE('',#567,#50);
#35=VECTOR('',#432,10.);
#36=VECTOR('',#433,10.);
#37=VECTOR('',#434,10.);
#38=VECTOR('',#435,10.);
#39=VECTOR('',#450,10.);
#40=VECTOR('',#451,10.);
#41=VECTOR('',#454,10.);
#42=VECTOR('',#455,10.);
#43=VECTOR('',#456,10.);
#44=VECTOR('',#459,10.);
#45=VECTOR('',#460,10.);
#46=VECTOR('',#461,10.);
#47=VECTOR('',#464,10.);
#48=VECTOR('',#465,10.);
#49=VECTOR('',#468,10.);
#50=VECTOR('',#469,10.);
#51=PLANE('',#347);
#52=PLANE('',#353);
#53=PLANE('',#365);
#54=PLANE('',#366);
#55=PLANE('',#373);
#56=PLANE('',#374);
#57=PLANE('',#375);
#58=PLANE('',#376);
#59=PLANE('',#377);
#60=PLANE('',#378);
#61=PLANE('',#379);
#62=CYLINDRICAL_SURFACE('',#345,4.);
#63=CYLINDRICAL_SURFACE('',#351,6.);
#64=CYLINDRICAL_SURFACE('',#354,4.);
#65=CYLINDRICAL_SURFACE('',#357,3.3235);
#66=CYLINDRICAL_SURFACE('',#362,7.);
#67=FACE_BOUND('',#104,.T.);
#68=FACE_BOUND('',#106,.T.);
#69=FACE_BOUND('',#109,.T.);
#70=FACE_BOUND('',#111,.T.);
#71=FACE_BOUND('',#114,.T.);
#72=FACE_BOUND('',#116,.T.);
#73=FACE_BOUND('',#118,.T.);
#74=FACE_BOUND('',#120,.T.);
#75=FACE_BOUND('',#122,.T.);
#76=FACE_BOUND('',#124,.T.);
#77=FACE_BOUND('',#128,.T.);
#78=FACE_BOUND('',#130,.T.);
#79=FACE_BOUND('',#132,.T.);
#80=FACE_BOUND('',#136,.T.);
#81=FACE_BOUND('',#138,.T.);
#82=FACE_OUTER_BOUND('',#103,.T.);
#83=FACE_OUTER_BOUND('',#105,.T.);
#84=FACE_OUTER_BOUND('',#107,.T.);
#85=FACE_OUTER_BOUND('',#108,.T.);
#86=FACE_OUTER_BOUND('',#110,.T.);
#87=FACE_OUTER_BOUND('',#112,.T.);
#88=FACE_OUTER_BOUND('',#113,.T.);
#89=FACE_OUTER_BOUND('',#115,.T.);
#90=FACE_OUTER_BOUND('',#117,.T.);
#91=FACE_OUTER_BOUND('',#119,.T.);
#92=FACE_OUTER_BOUND('',#121,.T.);
#93=FACE_OUTER_BOUND('',#123,.T.);
#94=FACE_OUTER_BOUND('',#125,.T.);
#95=FACE_OUTER_BOUND('',#126,.T.);
#96=FACE_OUTER_BOUND('',#127,.T.);
#97=FACE_OUTER_BOUND('',#129,.T.);
#98=FACE_OUTER_BOUND('',#131,.T.);
#99=FACE_OUTER_BOUND('',#133,.T.);
#100=FACE_OUTER_BOUND('',#134,.T.);
#101=FACE_OUTER_BOUND('',#135,.T.);
#102=FACE_OUTER_BOUND('',#137,.T.);
#103=EDGE_LOOP('',(#222));
#104=EDGE_LOOP('',(#223));
#105=EDGE_LOOP('',(#224));
#106=EDGE_LOOP('',(#225));
#107=EDGE_LOOP('',(#226));
#108=EDGE_LOOP('',(#227));
#109=EDGE_LOOP('',(#228));
#110=EDGE_LOOP('',(#229));
#111=EDGE_LOOP('',(#230));
#112=EDGE_LOOP('',(#231));
#113=EDGE_LOOP('',(#232));
#114=EDGE_LOOP('',(#233));
#115=EDGE_LOOP('',(#234));
#116=EDGE_LOOP('',(#235));
#117=EDGE_LOOP('',(#236));
#118=EDGE_LOOP('',(#237));
#119=EDGE_LOOP('',(#238));
#120=EDGE_LOOP('',(#239));
#121=EDGE_LOOP('',(#240));
#122=EDGE_LOOP('',(#241));
#123=EDGE_LOOP('',(#242,#243,#244,#245));
#124=EDGE_LOOP('',(#246));
#125=EDGE_LOOP('',(#247,#248,#249,#250));
#126=EDGE_LOOP('',(#251,#252,#253,#254));
#127=EDGE_LOOP('',(#255,#256,#257,#258));
#128=EDGE_LOOP('',(#259));
#129=EDGE_LOOP('',(#260,#261,#262,#263));
#130=EDGE_LOOP('',(#264));
#131=EDGE_LOOP('',(#265,#266,#267,#268));
#132=EDGE_LOOP('',(#269));
#133=EDGE_LOOP('',(#270,#271,#272,#273,#274,#275,#276,#277));
#134=EDGE_LOOP('',(#278,#279,#280,#281,#282,#283,#284,#285));
#135=EDGE_LOOP('',(#286,#287,#288,#289));
#136=EDGE_LOOP('',(#290));
#137=EDGE_LOOP('',(#291,#292,#293,#294));
#138=EDGE_LOOP('',(#295));
#139=CIRCLE('',#343,3.);
#140=CIRCLE('',#344,4.);
#141=CIRCLE('',#346,4.);
#142=CIRCLE('',#349,6.);
#143=CIRCLE('',#350,5.);
#144=CIRCLE('',#352,6.);
#145=CIRCLE('',#355,4.);
#146=CIRCLE('',#356,4.);
#147=CIRCLE('',#358,3.3235);
#148=CIRCLE('',#359,3.3235);
#149=CIRCLE('',#361,4.);
#150=CIRCLE('',#363,7.);
#151=CIRCLE('',#364,7.);
#152=CIRCLE('',#368,10.);
#153=CIRCLE('',#369,8.9282032302755);
#154=CIRCLE('',#371,10.);
#155=CIRCLE('',#372,8.9282032302755);
#156=VERTEX_POINT('',#476);
#157=VERTEX_POINT('',#478);
#158=VERTEX_POINT('',#481);
#159=VERTEX_POINT('',#485);
#160=VERTEX_POINT('',#487);
#161=VERTEX_POINT('',#490);
#162=VERTEX_POINT('',#494);
#163=VERTEX_POINT('',#496);
#164=VERTEX_POINT('',#499);
#165=VERTEX_POINT('',#501);
#166=VERTEX_POINT('',#504);
#167=VERTEX_POINT('',#507);
#168=VERTEX_POINT('',#509);
#169=VERTEX_POINT('',#513);
#170=VERTEX_POINT('',#514);
#171=VERTEX_POINT('',#516);
#172=VERTEX_POINT('',#518);
#173=VERTEX_POINT('',#522);
#174=VERTEX_POINT('',#523);
#175=VERTEX_POINT('',#527);
#176=VERTEX_POINT('',#529);
#177=VERTEX_POINT('',#535);
#178=VERTEX_POINT('',#536);
#179=VERTEX_POINT('',#540);
#180=VERTEX_POINT('',#542);
#181=VERTEX_POINT('',#551);
#182=VERTEX_POINT('',#553);
#183=VERTEX_POINT('',#557);
#184=VERTEX_POINT('',#559);
#185=EDGE_CURVE('',#156,#156,#139,.T.);
#186=EDGE_CURVE('',#157,#157,#140,.T.);
#187=EDGE_CURVE('',#158,#158,#141,.T.);
#188=EDGE_CURVE('',#159,#159,#142,.T.);
#189=EDGE_CURVE('',#160,#160,#143,.T.);
#190=EDGE_CURVE('',#161,#161,#144,.T.);
#191=EDGE_CURVE('',#162,#162,#145,.T.);
#192=EDGE_CURVE('',#163,#163,#146,.T.);
#193=EDGE_CURVE('',#164,#164,#147,.T.);
#194=EDGE_CURVE('',#165,#165,#148,.T.);
#195=EDGE_CURVE('',#166,#166,#149,.T.);
#196=EDGE_CURVE('',#167,#167,#150,.T.);
#197=EDGE_CURVE('',#168,#168,#151,.T.);
#198=EDGE_CURVE('',#169,#170,#19,.T.);
#199=EDGE_CURVE('',#169,#171,#20,.T.);
#200=EDGE_CURVE('',#171,#172,#21,.T.);
#201=EDGE_CURVE('',#172,#170,#22,.T.);
#202=EDGE_CURVE('',#173,#174,#15,.T.);
#203=EDGE_CURVE('',#175,#173,#152,.T.);
#204=EDGE_CURVE('',#176,#175,#16,.T.);
#205=EDGE_CURVE('',#174,#176,#153,.T.);
#206=EDGE_CURVE('',#177,#178,#17,.T.);
#207=EDGE_CURVE('',#179,#177,#154,.T.);
#208=EDGE_CURVE('',#180,#179,#18,.T.);
#209=EDGE_CURVE('',#178,#180,#155,.T.);
#210=EDGE_CURVE('',#173,#172,#23,.T.);
#211=EDGE_CURVE('',#171,#175,#24,.T.);
#212=EDGE_CURVE('',#176,#181,#25,.T.);
#213=EDGE_CURVE('',#181,#182,#26,.T.);
#214=EDGE_CURVE('',#182,#174,#27,.T.);
#215=EDGE_CURVE('',#180,#183,#28,.T.);
#216=EDGE_CURVE('',#184,#183,#29,.T.);
#217=EDGE_CURVE('',#184,#178,#30,.T.);
#218=EDGE_CURVE('',#183,#182,#31,.T.);
#219=EDGE_CURVE('',#170,#179,#32,.T.);
#220=EDGE_CURVE('',#177,#169,#33,.T.);
#221=EDGE_CURVE('',#181,#184,#34,.T.);
#222=ORIENTED_EDGE('',*,*,#185,.T.);
#223=ORIENTED_EDGE('',*,*,#186,.T.);
#224=ORIENTED_EDGE('',*,*,#187,.F.);
#225=ORIENTED_EDGE('',*,*,#186,.F.);
#226=ORIENTED_EDGE('',*,*,#185,.F.);
#227=ORIENTED_EDGE('',*,*,#188,.T.);
#228=ORIENTED_EDGE('',*,*,#189,.T.);
#229=ORIENTED_EDGE('',*,*,#190,.F.);
#230=ORIENTED_EDGE('',*,*,#188,.F.);
#231=ORIENTED_EDGE('',*,*,#189,.F.);
#232=ORIENTED_EDGE('',*,*,#191,.F.);
#233=ORIENTED_EDGE('',*,*,#192,.F.);
#234=ORIENTED_EDGE('',*,*,#193,.T.);
#235=ORIENTED_EDGE('',*,*,#194,.F.);
#236=ORIENTED_EDGE('',*,*,#195,.F.);
#237=ORIENTED_EDGE('',*,*,#193,.F.);
#238=ORIENTED_EDGE('',*,*,#196,.F.);
#239=ORIENTED_EDGE('',*,*,#197,.F.);
#240=ORIENTED_EDGE('',*,*,#196,.T.);
#241=ORIENTED_EDGE('',*,*,#195,.T.);
#242=ORIENTED_EDGE('',*,*,#198,.F.);
#243=ORIENTED_EDGE('',*,*,#199,.T.);
#244=ORIENTED_EDGE('',*,*,#200,.T.);
#245=ORIENTED_EDGE('',*,*,#201,.T.);
#246=ORIENTED_EDGE('',*,*,#194,.T.);
#247=ORIENTED_EDGE('',*,*,#202,.F.);
#248=ORIENTED_EDGE('',*,*,#203,.F.);
#249=ORIENTED_EDGE('',*,*,#204,.F.);
#250=ORIENTED_EDGE('',*,*,#205,.F.);
#251=ORIENTED_EDGE('',*,*,#206,.F.);
#252=ORIENTED_EDGE('',*,*,#207,.F.);
#253=ORIENTED_EDGE('',*,*,#208,.F.);
#254=ORIENTED_EDGE('',*,*,#209,.F.);
#255=ORIENTED_EDGE('',*,*,#203,.T.);
#256=ORIENTED_EDGE('',*,*,#210,.T.);
#257=ORIENTED_EDGE('',*,*,#200,.F.);
#258=ORIENTED_EDGE('',*,*,#211,.T.);
#259=ORIENTED_EDGE('',*,*,#191,.T.);
#260=ORIENTED_EDGE('',*,*,#205,.T.);
#261=ORIENTED_EDGE('',*,*,#212,.T.);
#262=ORIENTED_EDGE('',*,*,#213,.T.);
#263=ORIENTED_EDGE('',*,*,#214,.T.);
#264=ORIENTED_EDGE('',*,*,#190,.T.);
#265=ORIENTED_EDGE('',*,*,#209,.T.);
#266=ORIENTED_EDGE('',*,*,#215,.T.);
#267=ORIENTED_EDGE('',*,*,#216,.F.);
#268=ORIENTED_EDGE('',*,*,#217,.T.);
#269=ORIENTED_EDGE('',*,*,#187,.T.);
#270=ORIENTED_EDGE('',*,*,#202,.T.);
#271=ORIENTED_EDGE('',*,*,#214,.F.);
#272=ORIENTED_EDGE('',*,*,#218,.F.);
#273=ORIENTED_EDGE('',*,*,#215,.F.);
#274=ORIENTED_EDGE('',*,*,#208,.T.);
#275=ORIENTED_EDGE('',*,*,#219,.F.);
#276=ORIENTED_EDGE('',*,*,#201,.F.);
#277=ORIENTED_EDGE('',*,*,#210,.F.);
#278=ORIENTED_EDGE('',*,*,#204,.T.);
#279=ORIENTED_EDGE('',*,*,#211,.F.);
#280=ORIENTED_EDGE('',*,*,#199,.F.);
#281=ORIENTED_EDGE('',*,*,#220,.F.);
#282=ORIENTED_EDGE('',*,*,#206,.T.);
#283=ORIENTED_EDGE('',*,*,#217,.F.);
#284=ORIENTED_EDGE('',*,*,#221,.F.);
#285=ORIENTED_EDGE('',*,*,#212,.F.);
#286=ORIENTED_EDGE('',*,*,#218,.T.);
#287=ORIENTED_EDGE('',*,*,#213,.F.);
#288=ORIENTED_EDGE('',*,*,#221,.T.);
#289=ORIENTED_EDGE('',*,*,#216,.T.);
#290=ORIENTED_EDGE('',*,*,#197,.T.);
#291=ORIENTED_EDGE('',*,*,#207,.T.);
#292=ORIENTED_EDGE('',*,*,#220,.T.);
#293=ORIENTED_EDGE('',*,*,#198,.T.);
#294=ORIENTED_EDGE('',*,*,#219,.T.);
#295=ORIENTED_EDGE('',*,*,#192,.T.);
#296=CONICAL_SURFACE('',#342,3.5,0.785398163397447);
#297=CONICAL_SURFACE('',#348,5.5,0.785398163397448);
#298=CONICAL_SURFACE('',#360,3.66175,0.785398163397448);
#299=CONICAL_SURFACE('',#367,9.46410161513775,0.261799387799152);
#300=CONICAL_SURFACE('',#370,9.46410161513775,0.261799387799152);
#301=ADVANCED_FACE('',(#82,#67),#296,.T.);
#302=ADVANCED_FACE('',(#83,#68),#62,.T.);
#303=ADVANCED_FACE('',(#84),#51,.T.);
#304=ADVANCED_FACE('',(#85,#69),#297,.T.);
#305=ADVANCED_FACE('',(#86,#70),#63,.T.);
#306=ADVANCED_FACE('',(#87),#52,.T.);
#307=ADVANCED_FACE('',(#88,#71),#64,.T.);
#308=ADVANCED_FACE('',(#89,#72),#65,.F.);
#309=ADVANCED_FACE('',(#90,#73),#298,.F.);
#310=ADVANCED_FACE('',(#91,#74),#66,.T.);
#311=ADVANCED_FACE('',(#92,#75),#53,.T.);
#312=ADVANCED_FACE('',(#93,#76),#54,.T.);
#313=ADVANCED_FACE('',(#94),#299,.T.);
#314=ADVANCED_FACE('',(#95),#300,.T.);
#315=ADVANCED_FACE('',(#96,#77),#55,.T.);
#316=ADVANCED_FACE('',(#97,#78),#56,.T.);
#317=ADVANCED_FACE('',(#98,#79),#57,.T.);
#318=ADVANCED_FACE('',(#99),#58,.T.);
#319=ADVANCED_FACE('',(#100),#59,.F.);
#320=ADVANCED_FACE('',(#101,#80),#60,.T.);
#321=ADVANCED_FACE('',(#102,#81),#61,.T.);
#322=CLOSED_SHELL('',(#301,#302,#303,#304,#305,#306,#307,#308,#309,#310,
#311,#312,#313,#314,#315,#316,#317,#318,#319,#320,#321));
#323=DERIVED_UNIT_ELEMENT(#325,1.);
#324=DERIVED_UNIT_ELEMENT(#575,3.);
#325=(
MASS_UNIT()
NAMED_UNIT(*)
SI_UNIT($,.GRAM.)
);
#326=DERIVED_UNIT((#323,#324));
#327=MEASURE_REPRESENTATION_ITEM('density measure',
POSITIVE_RATIO_MEASURE(1.),#326);
#328=PROPERTY_DEFINITION_REPRESENTATION(#333,#330);
#329=PROPERTY_DEFINITION_REPRESENTATION(#334,#331);
#330=REPRESENTATION('material name',(#332),#572);
#331=REPRESENTATION('density',(#327),#572);
#332=DESCRIPTIVE_REPRESENTATION_ITEM('Generic','Generic');
#333=PROPERTY_DEFINITION('material property','material name',#582);
#334=PROPERTY_DEFINITION('material property','density of part',#582);
#335=DATE_TIME_ROLE('creation_date');
#336=APPLIED_DATE_AND_TIME_ASSIGNMENT(#337,#335,(#582));
#337=DATE_AND_TIME(#338,#339);
#338=CALENDAR_DATE(2018,2,5);
#339=LOCAL_TIME(23,55,40.,#340);
#340=COORDINATED_UNIVERSAL_TIME_OFFSET(0,0,.BEHIND.);
#341=AXIS2_PLACEMENT_3D('placement',#474,#380,#381);
#342=AXIS2_PLACEMENT_3D('',#475,#382,#383);
#343=AXIS2_PLACEMENT_3D('',#477,#384,#385);
#344=AXIS2_PLACEMENT_3D('',#479,#386,#387);
#345=AXIS2_PLACEMENT_3D('',#480,#388,#389);
#346=AXIS2_PLACEMENT_3D('',#482,#390,#391);
#347=AXIS2_PLACEMENT_3D('',#483,#392,#393);
#348=AXIS2_PLACEMENT_3D('',#484,#394,#395);
#349=AXIS2_PLACEMENT_3D('',#486,#396,#397);
#350=AXIS2_PLACEMENT_3D('',#488,#398,#399);
#351=AXIS2_PLACEMENT_3D('',#489,#400,#401);
#352=AXIS2_PLACEMENT_3D('',#491,#402,#403);
#353=AXIS2_PLACEMENT_3D('',#492,#404,#405);
#354=AXIS2_PLACEMENT_3D('',#493,#406,#407);
#355=AXIS2_PLACEMENT_3D('',#495,#408,#409);
#356=AXIS2_PLACEMENT_3D('',#497,#410,#411);
#357=AXIS2_PLACEMENT_3D('',#498,#412,#413);
#358=AXIS2_PLACEMENT_3D('',#500,#414,#415);
#359=AXIS2_PLACEMENT_3D('',#502,#416,#417);
#360=AXIS2_PLACEMENT_3D('',#503,#418,#419);
#361=AXIS2_PLACEMENT_3D('',#505,#420,#421);
#362=AXIS2_PLACEMENT_3D('',#506,#422,#423);
#363=AXIS2_PLACEMENT_3D('',#508,#424,#425);
#364=AXIS2_PLACEMENT_3D('',#510,#426,#427);
#365=AXIS2_PLACEMENT_3D('',#511,#428,#429);
#366=AXIS2_PLACEMENT_3D('',#512,#430,#431);
#367=AXIS2_PLACEMENT_3D('',#521,#436,#437);
#368=AXIS2_PLACEMENT_3D('',#528,#438,#439);
#369=AXIS2_PLACEMENT_3D('',#533,#440,#441);
#370=AXIS2_PLACEMENT_3D('',#534,#442,#443);
#371=AXIS2_PLACEMENT_3D('',#541,#444,#445);
#372=AXIS2_PLACEMENT_3D('',#546,#446,#447);
#373=AXIS2_PLACEMENT_3D('',#547,#448,#449);
#374=AXIS2_PLACEMENT_3D('',#550,#452,#453);
#375=AXIS2_PLACEMENT_3D('',#556,#457,#458);
#376=AXIS2_PLACEMENT_3D('',#562,#462,#463);
#377=AXIS2_PLACEMENT_3D('',#565,#466,#467);
#378=AXIS2_PLACEMENT_3D('',#568,#470,#471);
#379=AXIS2_PLACEMENT_3D('',#569,#472,#473);
#380=DIRECTION('axis',(0.,0.,1.));
#381=DIRECTION('refdir',(1.,0.,0.));
#382=DIRECTION('center_axis',(6.24569867565149E-17,0.,1.));
#383=DIRECTION('ref_axis',(-1.,0.,6.2456986756515E-17));
#384=DIRECTION('center_axis',(6.2456986756515E-17,0.,1.));
#385=DIRECTION('ref_axis',(-1.,0.,6.2456986756515E-17));
#386=DIRECTION('center_axis',(-6.2456986756515E-17,0.,-1.));
#387=DIRECTION('ref_axis',(-1.,0.,6.2456986756515E-17));
#388=DIRECTION('center_axis',(6.2456986756515E-17,0.,1.));
#389=DIRECTION('ref_axis',(1.,0.,-6.2456986756515E-17));
#390=DIRECTION('center_axis',(0.,0.,1.));
#391=DIRECTION('ref_axis',(1.,0.,-6.2456986756515E-17));
#392=DIRECTION('center_axis',(-6.2456986756515E-17,0.,-1.));
#393=DIRECTION('ref_axis',(-1.,0.,6.2456986756515E-17));
#394=DIRECTION('center_axis',(-6.2456986756515E-17,0.,-1.));
#395=DIRECTION('ref_axis',(-1.,0.,6.2456986756515E-17));
#396=DIRECTION('center_axis',(6.2456986756515E-17,0.,1.));
#397=DIRECTION('ref_axis',(-1.,0.,6.2456986756515E-17));
#398=DIRECTION('center_axis',(-6.2456986756515E-17,0.,-1.));
#399=DIRECTION('ref_axis',(-1.,0.,6.2456986756515E-17));
#400=DIRECTION('center_axis',(6.2456986756515E-17,0.,1.));
#401=DIRECTION('ref_axis',(1.,0.,-6.2456986756515E-17));
#402=DIRECTION('center_axis',(0.,0.,-1.));
#403=DIRECTION('ref_axis',(1.,0.,-6.2456986756515E-17));
#404=DIRECTION('center_axis',(6.2456986756515E-17,0.,1.));
#405=DIRECTION('ref_axis',(1.,0.,-6.2456986756515E-17));
#406=DIRECTION('center_axis',(6.2456986756515E-17,0.,1.));
#407=DIRECTION('ref_axis',(1.,0.,-6.2456986756515E-17));
#408=DIRECTION('center_axis',(0.,0.,1.));
#409=DIRECTION('ref_axis',(1.,0.,-6.2456986756515E-17));
#410=DIRECTION('center_axis',(0.,0.,-1.));
#411=DIRECTION('ref_axis',(1.,0.,-6.2456986756515E-17));
#412=DIRECTION('center_axis',(1.,0.,0.));
#413=DIRECTION('ref_axis',(0.,0.,-1.));
#414=DIRECTION('center_axis',(1.,0.,0.));
#415=DIRECTION('ref_axis',(0.,0.,-1.));
#416=DIRECTION('center_axis',(1.,0.,0.));
#417=DIRECTION('ref_axis',(0.,0.,-1.));
#418=DIRECTION('center_axis',(1.,0.,0.));
#419=DIRECTION('ref_axis',(0.,0.,-1.));
#420=DIRECTION('center_axis',(-1.,0.,0.));
#421=DIRECTION('ref_axis',(0.,0.,-1.));
#422=DIRECTION('center_axis',(1.,0.,0.));
#423=DIRECTION('ref_axis',(0.,1.,0.));
#424=DIRECTION('center_axis',(1.,0.,0.));
#425=DIRECTION('ref_axis',(0.,1.,0.));
#426=DIRECTION('center_axis',(-1.,0.,0.));
#427=DIRECTION('ref_axis',(0.,1.,0.));
#428=DIRECTION('center_axis',(1.,0.,0.));
#429=DIRECTION('ref_axis',(0.,0.,-1.));
#430=DIRECTION('center_axis',(-1.,0.,0.));
#431=DIRECTION('ref_axis',(0.,0.,1.));
#432=DIRECTION('',(0.,1.,0.));
#433=DIRECTION('',(0.,0.,1.));
#434=DIRECTION('',(0.,1.,0.));
#435=DIRECTION('',(0.,0.,-1.));
#436=DIRECTION('center_axis',(0.,0.,-1.));
#437=DIRECTION('ref_axis',(-2.22044604925031E-16,1.,0.));
#438=DIRECTION('center_axis',(0.,0.,-1.));
#439=DIRECTION('ref_axis',(-2.22044604925031E-16,1.,0.));
#440=DIRECTION('center_axis',(0.,0.,1.));
#441=DIRECTION('ref_axis',(-2.22044604925031E-16,1.,0.));
#442=DIRECTION('center_axis',(0.,0.,1.));
#443=DIRECTION('ref_axis',(-2.22044604925031E-16,1.,0.));
#444=DIRECTION('center_axis',(0.,0.,1.));
#445=DIRECTION('ref_axis',(-2.22044604925031E-16,1.,0.));
#446=DIRECTION('center_axis',(0.,0.,-1.));
#447=DIRECTION('ref_axis',(-2.22044604925031E-16,1.,0.));
#448=DIRECTION('center_axis',(0.,0.,-1.));
#449=DIRECTION('ref_axis',(-1.,0.,0.));
#450=DIRECTION('',(1.,0.,0.));
#451=DIRECTION('',(-1.,0.,0.));
#452=DIRECTION('center_axis',(0.,0.,1.));
#453=DIRECTION('ref_axis',(1.,0.,0.));
#454=DIRECTION('',(1.,0.,0.));
#455=DIRECTION('',(0.,1.,0.));
#456=DIRECTION('',(-1.,0.,0.));
#457=DIRECTION('center_axis',(0.,0.,-1.));
#458=DIRECTION('ref_axis',(-1.,0.,0.));
#459=DIRECTION('',(1.,0.,0.));
#460=DIRECTION('',(0.,1.,0.));
#461=DIRECTION('',(-1.,0.,0.));
#462=DIRECTION('center_axis',(0.,1.,0.));
#463=DIRECTION('ref_axis',(0.,0.,1.));
#464=DIRECTION('',(0.,0.,1.));
#465=DIRECTION('',(-1.,0.,0.));
#466=DIRECTION('center_axis',(0.,1.,0.));
#467=DIRECTION('ref_axis',(0.,0.,1.));
#468=DIRECTION('',(1.,0.,0.));
#469=DIRECTION('',(0.,0.,-1.));
#470=DIRECTION('center_axis',(1.,0.,0.));
#471=DIRECTION('ref_axis',(0.,0.,-1.));
#472=DIRECTION('center_axis',(0.,0.,1.));
#473=DIRECTION('ref_axis',(1.,0.,0.));
#474=CARTESIAN_POINT('',(0.,0.,0.));
#475=CARTESIAN_POINT('Origin',(-1.53019617553462E-15,0.,-14.5));
#476=CARTESIAN_POINT('',(3.,3.67394039744206E-16,-15.));
#477=CARTESIAN_POINT('Origin',(-1.56142466891288E-15,0.,-15.));
#478=CARTESIAN_POINT('',(4.,-4.89858719658941E-16,-14.));
#479=CARTESIAN_POINT('Origin',(-1.49896768215636E-15,0.,-14.));
#480=CARTESIAN_POINT('Origin',(-8.43169321212953E-16,0.,-3.5));
#481=CARTESIAN_POINT('',(-4.,-4.89858719658941E-16,-8.));
#482=CARTESIAN_POINT('Origin',(-1.12422576161727E-15,0.,-8.));
#483=CARTESIAN_POINT('Origin',(2.,0.,-15.));
#484=CARTESIAN_POINT('Origin',(-3.12284933782575E-17,0.,9.5));
#485=CARTESIAN_POINT('',(6.,7.34788079488412E-16,9.));
#486=CARTESIAN_POINT('Origin',(-6.2456986756515E-17,0.,9.));
#487=CARTESIAN_POINT('',(5.,-6.12323399573677E-16,10.));
#488=CARTESIAN_POINT('Origin',(4.62223186652937E-32,0.,10.));
#489=CARTESIAN_POINT('Origin',(-6.2456986756515E-17,0.,9.));
#490=CARTESIAN_POINT('',(6.,0.,8.));
#491=CARTESIAN_POINT('Origin',(-1.2491397351303E-16,0.,8.));
#492=CARTESIAN_POINT('Origin',(3.,0.,10.));
#493=CARTESIAN_POINT('Origin',(-8.43169321212953E-16,0.,-3.5));
#494=CARTESIAN_POINT('',(-4.,-4.89858719658941E-16,4.));
#495=CARTESIAN_POINT('Origin',(-3.7474192053909E-16,0.,4.));
#496=CARTESIAN_POINT('',(-4.,4.89858719658941E-16,-4.));
#497=CARTESIAN_POINT('Origin',(-8.7439781459121E-16,0.,-4.));
#498=CARTESIAN_POINT('Origin',(23.66175,0.,0.));
#499=CARTESIAN_POINT('',(31.3235,0.,-3.3235));
#500=CARTESIAN_POINT('Origin',(31.3235,0.,0.));
#501=CARTESIAN_POINT('',(16.,0.,-3.3235));
#502=CARTESIAN_POINT('Origin',(16.,0.,0.));
#503=CARTESIAN_POINT('Origin',(31.66175,0.,0.));
#504=CARTESIAN_POINT('',(32.,0.,-4.));
#505=CARTESIAN_POINT('Origin',(32.,0.,0.));
#506=CARTESIAN_POINT('Origin',(24.,0.,0.));
#507=CARTESIAN_POINT('',(32.,7.,0.));
#508=CARTESIAN_POINT('Origin',(32.,0.,0.));
#509=CARTESIAN_POINT('',(20.,-7.,8.57252759403147E-16));
#510=CARTESIAN_POINT('Origin',(20.,0.,0.));
#511=CARTESIAN_POINT('Origin',(32.,3.5,0.));
#512=CARTESIAN_POINT('Origin',(16.,0.,4.));
#513=CARTESIAN_POINT('',(16.,-8.,-4.));
#514=CARTESIAN_POINT('',(16.,8.,-4.));
#515=CARTESIAN_POINT('',(16.,0.,-4.));
#516=CARTESIAN_POINT('',(16.,-8.,4.));
#517=CARTESIAN_POINT('',(16.,-8.,-4.));
#518=CARTESIAN_POINT('',(16.,8.,4.));
#519=CARTESIAN_POINT('',(16.,0.,4.));
#520=CARTESIAN_POINT('',(16.,8.,-4.));
#521=CARTESIAN_POINT('Origin',(0.,0.,6.));
#522=CARTESIAN_POINT('',(-6.,8.,4.));
#523=CARTESIAN_POINT('',(-3.96393906627005,8.,8.));
#524=CARTESIAN_POINT('Ctrl Pts',(-6.,8.,4.));
#525=CARTESIAN_POINT('Ctrl Pts',(-4.92432424305689,8.,6.40868594642905));
#526=CARTESIAN_POINT('Ctrl Pts',(-3.96393906627005,8.,8.));
#527=CARTESIAN_POINT('',(-6.,-8.,4.));
#528=CARTESIAN_POINT('Origin',(0.,0.,4.));
#529=CARTESIAN_POINT('',(-3.96393906627005,-8.,8.));
#530=CARTESIAN_POINT('Ctrl Pts',(-3.96393906627005,-8.,8.));
#531=CARTESIAN_POINT('Ctrl Pts',(-4.92432424305689,-8.,6.40868594642905));
#532=CARTESIAN_POINT('Ctrl Pts',(-6.,-8.,4.));
#533=CARTESIAN_POINT('Origin',(0.,0.,8.));
#534=CARTESIAN_POINT('Origin',(0.,0.,-6.));
#535=CARTESIAN_POINT('',(-6.,-8.,-4.));
#536=CARTESIAN_POINT('',(-3.96393906627005,-8.,-8.));
#537=CARTESIAN_POINT('Ctrl Pts',(-6.,-8.,-4.));
#538=CARTESIAN_POINT('Ctrl Pts',(-4.92432424305689,-8.,-6.40868594642905));
#539=CARTESIAN_POINT('Ctrl Pts',(-3.96393906627005,-8.,-8.));
#540=CARTESIAN_POINT('',(-6.,8.,-4.));
#541=CARTESIAN_POINT('Origin',(0.,0.,-4.));
#542=CARTESIAN_POINT('',(-3.96393906627005,8.,-8.));
#543=CARTESIAN_POINT('Ctrl Pts',(-3.96393906627005,8.,-8.));
#544=CARTESIAN_POINT('Ctrl Pts',(-4.92432424305689,8.,-6.40868594642905));
#545=CARTESIAN_POINT('Ctrl Pts',(-6.,8.,-4.));
#546=CARTESIAN_POINT('Origin',(0.,0.,-8.));
#547=CARTESIAN_POINT('Origin',(-10.,0.,4.));
#548=CARTESIAN_POINT('',(16.,8.,4.));
#549=CARTESIAN_POINT('',(16.,-8.,4.));
#550=CARTESIAN_POINT('Origin',(20.,0.,8.));
#551=CARTESIAN_POINT('',(20.,-8.,8.));
#552=CARTESIAN_POINT('',(-10.,-8.,8.));
#553=CARTESIAN_POINT('',(20.,8.,8.));
#554=CARTESIAN_POINT('',(20.,0.,8.));
#555=CARTESIAN_POINT('',(-10.,8.,8.));
#556=CARTESIAN_POINT('Origin',(-10.,0.,-8.));
#557=CARTESIAN_POINT('',(20.,8.,-8.));
#558=CARTESIAN_POINT('',(20.,8.,-8.));
#559=CARTESIAN_POINT('',(20.,-8.,-8.));
#560=CARTESIAN_POINT('',(20.,0.,-8.));
#561=CARTESIAN_POINT('',(20.,-8.,-8.));
#562=CARTESIAN_POINT('Origin',(5.72222222222222,8.,-1.04083408558608E-16));
#563=CARTESIAN_POINT('',(20.,8.,8.));
#564=CARTESIAN_POINT('',(-10.,8.,-4.));
#565=CARTESIAN_POINT('Origin',(5.72222222222222,-8.,-2.83162943149345E-16));
#566=CARTESIAN_POINT('',(-10.,-8.,-4.));
#567=CARTESIAN_POINT('',(20.,-8.,8.));
#568=CARTESIAN_POINT('Origin',(20.,0.,-8.));
#569=CARTESIAN_POINT('Origin',(16.,0.,-4.));
#570=UNCERTAINTY_MEASURE_WITH_UNIT(LENGTH_MEASURE(0.01),#574,
'DISTANCE_ACCURACY_VALUE',
'Maximum model space distance between geometric entities at asserted c
onnectivities');
#571=UNCERTAINTY_MEASURE_WITH_UNIT(LENGTH_MEASURE(0.01),#574,
'DISTANCE_ACCURACY_VALUE',
'Maximum model space distance between geometric entities at asserted c
onnectivities');
#572=(
GEOMETRIC_REPRESENTATION_CONTEXT(3)
GLOBAL_UNCERTAINTY_ASSIGNED_CONTEXT((#570))
GLOBAL_UNIT_ASSIGNED_CONTEXT((#574,#577,#576))
REPRESENTATION_CONTEXT('','3D')
);
#573=(
GEOMETRIC_REPRESENTATION_CONTEXT(3)
GLOBAL_UNCERTAINTY_ASSIGNED_CONTEXT((#571))
GLOBAL_UNIT_ASSIGNED_CONTEXT((#574,#577,#576))
REPRESENTATION_CONTEXT('','3D')
);
#574=(
LENGTH_UNIT()
NAMED_UNIT(*)
SI_UNIT(.MILLI.,.METRE.)
);
#575=(
LENGTH_UNIT()
NAMED_UNIT(*)
SI_UNIT(.CENTI.,.METRE.)
);
#576=(
NAMED_UNIT(*)
SI_UNIT($,.STERADIAN.)
SOLID_ANGLE_UNIT()
);
#577=(
NAMED_UNIT(*)
PLANE_ANGLE_UNIT()
SI_UNIT($,.RADIAN.)
);
#578=SHAPE_DEFINITION_REPRESENTATION(#579,#580);
#579=PRODUCT_DEFINITION_SHAPE('',$,#582);
#580=SHAPE_REPRESENTATION('',(#341),#572);
#581=PRODUCT_DEFINITION_CONTEXT('part definition',#586,'design');
#582=PRODUCT_DEFINITION('GKM8-16_20(0)','GKM8-16_20(0)',#583,#581);
#583=PRODUCT_DEFINITION_FORMATION('',$,#588);
#584=PRODUCT_RELATED_PRODUCT_CATEGORY('GKM8-16_20(0)','GKM8-16_20(0)',(#588));
#585=APPLICATION_PROTOCOL_DEFINITION('international standard',
'automotive_design',2009,#586);
#586=APPLICATION_CONTEXT(
'Core Data for Automotive Mechanical Design Process');
#587=PRODUCT_CONTEXT('part definition',#586,'mechanical');
#588=PRODUCT('GKM8-16_20(0)','GKM8-16_20(0)',
'C85 GKM-Double Knuckle Joint',(#587));
#589=PRESENTATION_STYLE_ASSIGNMENT((#590));
#590=SURFACE_STYLE_USAGE(.BOTH.,#591);
#591=SURFACE_SIDE_STYLE('',(#592));
#592=SURFACE_STYLE_FILL_AREA(#593);
#593=FILL_AREA_STYLE('',(#594));
#594=FILL_AREA_STYLE_COLOUR('',#595);
#595=COLOUR_RGB('',0.686274509803922,0.686274509803922,0.686274509803922);
ENDSEC;
END-ISO-10303-21;
