ISO-10303-21;
HEADER;
/* Generated by software containing ST-Developer
 * from STEP Tools, Inc. (www.steptools.com) 
 */

FILE_DESCRIPTION(
/* description */ (''),
/* implementation_level */ '2;1');

FILE_NAME(
/* name */ 'C:\\Users\\daud\\Desktop\\#74SS_1.stp',
/* time_stamp */ '2018-05-02T14:54:04+10:00',
/* author */ ('daud'),
/* organization */ (''),
/* preprocessor_version */ 'ST-DEVELOPER v16.13',
/* originating_system */ 'Autodesk Inventor 2018',
/* authorisation */ '');

FILE_SCHEMA (('AUTOMOTIVE_DESIGN { 1 0 10303 214 3 1 1 }'));
ENDSEC;

DATA;
#10=MECHANICAL_DESIGN_GEOMETRIC_PRESENTATION_REPRESENTATION('',(#187,#190,
#189,#188,#191,#192,#193,#195,#196,#194,#197,#199,#198,#200),#382);
#11=SHAPE_REPRESENTATION_RELATIONSHIP('SRR','None',#389,#12);
#12=ADVANCED_BREP_SHAPE_REPRESENTATION('',(#13),#381);
#13=MANIFOLD_SOLID_BREP('Solid1',#214);
#14=CYLINDRICAL_SURFACE('',#244,15.1455);
#15=LINE('',#355,#21);
#16=LINE('',#356,#22);
#17=LINE('',#358,#23);
#18=LINE('',#359,#24);
#19=LINE('',#375,#25);
#20=LINE('',#377,#26);
#21=VECTOR('',#265,10.);
#22=VECTOR('',#266,10.);
#23=VECTOR('',#269,10.);
#24=VECTOR('',#270,10.);
#25=VECTOR('',#293,10.);
#26=VECTOR('',#296,10.);
#27=PLANE('',#238);
#28=PLANE('',#239);
#29=PLANE('',#240);
#30=PLANE('',#246);
#31=PLANE('',#249);
#32=PLANE('',#250);
#33=PLANE('',#251);
#34=PLANE('',#252);
#35=FACE_BOUND('',#62,.T.);
#36=FACE_BOUND('',#64,.T.);
#37=FACE_BOUND('',#69,.T.);
#38=FACE_BOUND('',#71,.T.);
#39=FACE_BOUND('',#73,.T.);
#40=FACE_BOUND('',#75,.T.);
#41=FACE_BOUND('',#77,.T.);
#42=CIRCLE('',#235,24.);
#43=CIRCLE('',#237,24.);
#44=CIRCLE('',#242,15.1455);
#45=CIRCLE('',#243,16.1455);
#46=CIRCLE('',#245,15.1455);
#47=CIRCLE('',#248,16.1455);
#48=FACE_OUTER_BOUND('',#61,.T.);
#49=FACE_OUTER_BOUND('',#63,.T.);
#50=FACE_OUTER_BOUND('',#65,.T.);
#51=FACE_OUTER_BOUND('',#66,.T.);
#52=FACE_OUTER_BOUND('',#67,.T.);
#53=FACE_OUTER_BOUND('',#68,.T.);
#54=FACE_OUTER_BOUND('',#70,.T.);
#55=FACE_OUTER_BOUND('',#72,.T.);
#56=FACE_OUTER_BOUND('',#74,.T.);
#57=FACE_OUTER_BOUND('',#76,.T.);
#58=FACE_OUTER_BOUND('',#78,.T.);
#59=FACE_OUTER_BOUND('',#79,.T.);
#60=FACE_OUTER_BOUND('',#80,.T.);
#61=EDGE_LOOP('',(#135,#136,#137,#138,#139,#140));
#62=EDGE_LOOP('',(#141));
#63=EDGE_LOOP('',(#142,#143,#144,#145,#146,#147));
#64=EDGE_LOOP('',(#148));
#65=EDGE_LOOP('',(#149,#150,#151,#152));
#66=EDGE_LOOP('',(#153,#154,#155,#156));
#67=EDGE_LOOP('',(#157,#158,#159,#160));
#68=EDGE_LOOP('',(#161));
#69=EDGE_LOOP('',(#162));
#70=EDGE_LOOP('',(#163));
#71=EDGE_LOOP('',(#164));
#72=EDGE_LOOP('',(#165));
#73=EDGE_LOOP('',(#166));
#74=EDGE_LOOP('',(#167));
#75=EDGE_LOOP('',(#168));
#76=EDGE_LOOP('',(#169));
#77=EDGE_LOOP('',(#170));
#78=EDGE_LOOP('',(#171,#172,#173,#174));
#79=EDGE_LOOP('',(#175,#176,#177,#178));
#80=EDGE_LOOP('',(#179,#180,#181,#182));
#81=(
BOUNDED_CURVE()
B_SPLINE_CURVE(2,(#303,#304,#305),.UNSPECIFIED.,.F.,.F.)
B_SPLINE_CURVE_WITH_KNOTS((3,3),(0.,2.83330705917073),.UNSPECIFIED.)
CURVE()
GEOMETRIC_REPRESENTATION_ITEM()
RATIONAL_B_SPLINE_CURVE((1.,1.15470053837925,1.))
REPRESENTATION_ITEM('')
);
#82=(
BOUNDED_CURVE()
B_SPLINE_CURVE(2,(#307,#308,#309),.UNSPECIFIED.,.F.,.F.)
B_SPLINE_CURVE_WITH_KNOTS((3,3),(0.,2.83330705917073),.UNSPECIFIED.)
CURVE()
GEOMETRIC_REPRESENTATION_ITEM()
RATIONAL_B_SPLINE_CURVE((1.,1.15470053837926,1.))
REPRESENTATION_ITEM('')
);
#83=(
BOUNDED_CURVE()
B_SPLINE_CURVE(2,(#311,#312,#313),.UNSPECIFIED.,.F.,.F.)
B_SPLINE_CURVE_WITH_KNOTS((3,3),(0.,2.83330705917073),.UNSPECIFIED.)
CURVE()
GEOMETRIC_REPRESENTATION_ITEM()
RATIONAL_B_SPLINE_CURVE((1.,1.15470053837925,1.))
REPRESENTATION_ITEM('')
);
#84=(
BOUNDED_CURVE()
B_SPLINE_CURVE(2,(#315,#316,#317),.UNSPECIFIED.,.F.,.F.)
B_SPLINE_CURVE_WITH_KNOTS((3,3),(0.,2.83330705917073),.UNSPECIFIED.)
CURVE()
GEOMETRIC_REPRESENTATION_ITEM()
RATIONAL_B_SPLINE_CURVE((1.,1.15470053837925,1.))
REPRESENTATION_ITEM('')
);
#85=(
BOUNDED_CURVE()
B_SPLINE_CURVE(2,(#319,#320,#321),.UNSPECIFIED.,.F.,.F.)
B_SPLINE_CURVE_WITH_KNOTS((3,3),(0.,2.83330705917073),.UNSPECIFIED.)
CURVE()
GEOMETRIC_REPRESENTATION_ITEM()
RATIONAL_B_SPLINE_CURVE((1.,1.15470053837925,1.))
REPRESENTATION_ITEM('')
);
#86=(
BOUNDED_CURVE()
B_SPLINE_CURVE(2,(#322,#323,#324),.UNSPECIFIED.,.F.,.F.)
B_SPLINE_CURVE_WITH_KNOTS((3,3),(0.,2.83330705917072),.UNSPECIFIED.)
CURVE()
GEOMETRIC_REPRESENTATION_ITEM()
RATIONAL_B_SPLINE_CURVE((1.,1.15470053837925,1.))
REPRESENTATION_ITEM('')
);
#87=(
BOUNDED_CURVE()
B_SPLINE_CURVE(2,(#330,#331,#332),.UNSPECIFIED.,.F.,.F.)
B_SPLINE_CURVE_WITH_KNOTS((3,3),(0.,2.83330705917073),.UNSPECIFIED.)
CURVE()
GEOMETRIC_REPRESENTATION_ITEM()
RATIONAL_B_SPLINE_CURVE((1.,1.15470053837925,1.))
REPRESENTATION_ITEM('')
);
#88=(
BOUNDED_CURVE()
B_SPLINE_CURVE(2,(#334,#335,#336),.UNSPECIFIED.,.F.,.F.)
B_SPLINE_CURVE_WITH_KNOTS((3,3),(0.,2.83330705917073),.UNSPECIFIED.)
CURVE()
GEOMETRIC_REPRESENTATION_ITEM()
RATIONAL_B_SPLINE_CURVE((1.,1.15470053837925,1.))
REPRESENTATION_ITEM('')
);
#89=(
BOUNDED_CURVE()
B_SPLINE_CURVE(2,(#338,#339,#340),.UNSPECIFIED.,.F.,.F.)
B_SPLINE_CURVE_WITH_KNOTS((3,3),(0.,2.83330705917073),.UNSPECIFIED.)
CURVE()
GEOMETRIC_REPRESENTATION_ITEM()
RATIONAL_B_SPLINE_CURVE((1.,1.15470053837926,1.))
REPRESENTATION_ITEM('')
);
#90=(
BOUNDED_CURVE()
B_SPLINE_CURVE(2,(#342,#343,#344),.UNSPECIFIED.,.F.,.F.)
B_SPLINE_CURVE_WITH_KNOTS((3,3),(0.,2.83330705917073),.UNSPECIFIED.)
CURVE()
GEOMETRIC_REPRESENTATION_ITEM()
RATIONAL_B_SPLINE_CURVE((1.,1.15470053837925,1.))
REPRESENTATION_ITEM('')
);
#91=(
BOUNDED_CURVE()
B_SPLINE_CURVE(2,(#346,#347,#348),.UNSPECIFIED.,.F.,.F.)
B_SPLINE_CURVE_WITH_KNOTS((3,3),(0.,2.83330705917072),.UNSPECIFIED.)
CURVE()
GEOMETRIC_REPRESENTATION_ITEM()
RATIONAL_B_SPLINE_CURVE((1.,1.15470053837925,1.))
REPRESENTATION_ITEM('')
);
#92=(
BOUNDED_CURVE()
B_SPLINE_CURVE(2,(#349,#350,#351),.UNSPECIFIED.,.F.,.F.)
B_SPLINE_CURVE_WITH_KNOTS((3,3),(0.,2.83330705917073),.UNSPECIFIED.)
CURVE()
GEOMETRIC_REPRESENTATION_ITEM()
RATIONAL_B_SPLINE_CURVE((1.,1.15470053837925,1.))
REPRESENTATION_ITEM('')
);
#93=VERTEX_POINT('',#301);
#94=VERTEX_POINT('',#302);
#95=VERTEX_POINT('',#306);
#96=VERTEX_POINT('',#310);
#97=VERTEX_POINT('',#314);
#98=VERTEX_POINT('',#318);
#99=VERTEX_POINT('',#325);
#100=VERTEX_POINT('',#328);
#101=VERTEX_POINT('',#329);
#102=VERTEX_POINT('',#333);
#103=VERTEX_POINT('',#337);
#104=VERTEX_POINT('',#341);
#105=VERTEX_POINT('',#345);
#106=VERTEX_POINT('',#352);
#107=VERTEX_POINT('',#362);
#108=VERTEX_POINT('',#364);
#109=VERTEX_POINT('',#367);
#110=VERTEX_POINT('',#371);
#111=EDGE_CURVE('',#93,#94,#81,.T.);
#112=EDGE_CURVE('',#95,#93,#82,.T.);
#113=EDGE_CURVE('',#96,#95,#83,.T.);
#114=EDGE_CURVE('',#97,#96,#84,.T.);
#115=EDGE_CURVE('',#98,#97,#85,.T.);
#116=EDGE_CURVE('',#94,#98,#86,.T.);
#117=EDGE_CURVE('',#99,#99,#42,.T.);
#118=EDGE_CURVE('',#100,#101,#87,.T.);
#119=EDGE_CURVE('',#102,#100,#88,.T.);
#120=EDGE_CURVE('',#103,#102,#89,.T.);
#121=EDGE_CURVE('',#104,#103,#90,.T.);
#122=EDGE_CURVE('',#105,#104,#91,.T.);
#123=EDGE_CURVE('',#101,#105,#92,.T.);
#124=EDGE_CURVE('',#106,#106,#43,.T.);
#125=EDGE_CURVE('',#100,#96,#15,.T.);
#126=EDGE_CURVE('',#101,#97,#16,.T.);
#127=EDGE_CURVE('',#93,#103,#17,.T.);
#128=EDGE_CURVE('',#102,#95,#18,.T.);
#129=EDGE_CURVE('',#107,#107,#44,.T.);
#130=EDGE_CURVE('',#108,#108,#45,.T.);
#131=EDGE_CURVE('',#109,#109,#46,.T.);
#132=EDGE_CURVE('',#110,#110,#47,.T.);
#133=EDGE_CURVE('',#105,#98,#19,.T.);
#134=EDGE_CURVE('',#104,#94,#20,.T.);
#135=ORIENTED_EDGE('',*,*,#111,.F.);
#136=ORIENTED_EDGE('',*,*,#112,.F.);
#137=ORIENTED_EDGE('',*,*,#113,.F.);
#138=ORIENTED_EDGE('',*,*,#114,.F.);
#139=ORIENTED_EDGE('',*,*,#115,.F.);
#140=ORIENTED_EDGE('',*,*,#116,.F.);
#141=ORIENTED_EDGE('',*,*,#117,.F.);
#142=ORIENTED_EDGE('',*,*,#118,.F.);
#143=ORIENTED_EDGE('',*,*,#119,.F.);
#144=ORIENTED_EDGE('',*,*,#120,.F.);
#145=ORIENTED_EDGE('',*,*,#121,.F.);
#146=ORIENTED_EDGE('',*,*,#122,.F.);
#147=ORIENTED_EDGE('',*,*,#123,.F.);
#148=ORIENTED_EDGE('',*,*,#124,.F.);
#149=ORIENTED_EDGE('',*,*,#114,.T.);
#150=ORIENTED_EDGE('',*,*,#125,.F.);
#151=ORIENTED_EDGE('',*,*,#118,.T.);
#152=ORIENTED_EDGE('',*,*,#126,.T.);
#153=ORIENTED_EDGE('',*,*,#112,.T.);
#154=ORIENTED_EDGE('',*,*,#127,.T.);
#155=ORIENTED_EDGE('',*,*,#120,.T.);
#156=ORIENTED_EDGE('',*,*,#128,.T.);
#157=ORIENTED_EDGE('',*,*,#113,.T.);
#158=ORIENTED_EDGE('',*,*,#128,.F.);
#159=ORIENTED_EDGE('',*,*,#119,.T.);
#160=ORIENTED_EDGE('',*,*,#125,.T.);
#161=ORIENTED_EDGE('',*,*,#129,.T.);
#162=ORIENTED_EDGE('',*,*,#130,.T.);
#163=ORIENTED_EDGE('',*,*,#131,.F.);
#164=ORIENTED_EDGE('',*,*,#129,.F.);
#165=ORIENTED_EDGE('',*,*,#117,.T.);
#166=ORIENTED_EDGE('',*,*,#130,.F.);
#167=ORIENTED_EDGE('',*,*,#131,.T.);
#168=ORIENTED_EDGE('',*,*,#132,.T.);
#169=ORIENTED_EDGE('',*,*,#124,.T.);
#170=ORIENTED_EDGE('',*,*,#132,.F.);
#171=ORIENTED_EDGE('',*,*,#115,.T.);
#172=ORIENTED_EDGE('',*,*,#126,.F.);
#173=ORIENTED_EDGE('',*,*,#123,.T.);
#174=ORIENTED_EDGE('',*,*,#133,.T.);
#175=ORIENTED_EDGE('',*,*,#116,.T.);
#176=ORIENTED_EDGE('',*,*,#133,.F.);
#177=ORIENTED_EDGE('',*,*,#122,.T.);
#178=ORIENTED_EDGE('',*,*,#134,.T.);
#179=ORIENTED_EDGE('',*,*,#111,.T.);
#180=ORIENTED_EDGE('',*,*,#134,.F.);
#181=ORIENTED_EDGE('',*,*,#121,.T.);
#182=ORIENTED_EDGE('',*,*,#127,.F.);
#183=CONICAL_SURFACE('',#234,26.,1.0471975511966);
#184=CONICAL_SURFACE('',#236,26.,1.0471975511966);
#185=CONICAL_SURFACE('',#241,15.6455,0.785398163397448);
#186=CONICAL_SURFACE('',#247,15.6455,0.785398163397448);
#187=STYLED_ITEM('',(#399),#201);
#188=STYLED_ITEM('',(#399),#202);
#189=STYLED_ITEM('',(#399),#203);
#190=STYLED_ITEM('',(#399),#204);
#191=STYLED_ITEM('',(#399),#205);
#192=STYLED_ITEM('',(#399),#206);
#193=STYLED_ITEM('',(#399),#207);
#194=STYLED_ITEM('',(#399),#208);
#195=STYLED_ITEM('',(#399),#209);
#196=STYLED_ITEM('',(#399),#210);
#197=STYLED_ITEM('',(#399),#211);
#198=STYLED_ITEM('',(#399),#212);
#199=STYLED_ITEM('',(#399),#213);
#200=STYLED_ITEM('',(#398),#13);
#201=ADVANCED_FACE('',(#48,#35),#183,.T.);
#202=ADVANCED_FACE('',(#49,#36),#184,.T.);
#203=ADVANCED_FACE('',(#50),#27,.T.);
#204=ADVANCED_FACE('',(#51),#28,.T.);
#205=ADVANCED_FACE('',(#52),#29,.T.);
#206=ADVANCED_FACE('',(#53,#37),#185,.F.);
#207=ADVANCED_FACE('',(#54,#38),#14,.F.);
#208=ADVANCED_FACE('',(#55,#39),#30,.T.);
#209=ADVANCED_FACE('',(#56,#40),#186,.F.);
#210=ADVANCED_FACE('',(#57,#41),#31,.T.);
#211=ADVANCED_FACE('',(#58),#32,.T.);
#212=ADVANCED_FACE('',(#59),#33,.T.);
#213=ADVANCED_FACE('',(#60),#34,.T.);
#214=CLOSED_SHELL('',(#201,#202,#203,#204,#205,#206,#207,#208,#209,#210,
#211,#212,#213));
#215=DERIVED_UNIT_ELEMENT(#217,1.);
#216=DERIVED_UNIT_ELEMENT(#384,3.);
#217=(
MASS_UNIT()
NAMED_UNIT(*)
SI_UNIT($,.GRAM.)
);
#218=DERIVED_UNIT((#215,#216));
#219=MEASURE_REPRESENTATION_ITEM('density measure',
POSITIVE_RATIO_MEASURE(1.),#218);
#220=PROPERTY_DEFINITION_REPRESENTATION(#225,#222);
#221=PROPERTY_DEFINITION_REPRESENTATION(#226,#223);
#222=REPRESENTATION('material name',(#224),#381);
#223=REPRESENTATION('density',(#219),#381);
#224=DESCRIPTIVE_REPRESENTATION_ITEM('Generic','Generic');
#225=PROPERTY_DEFINITION('material property','material name',#391);
#226=PROPERTY_DEFINITION('material property','density of part',#391);
#227=DATE_TIME_ROLE('creation_date');
#228=APPLIED_DATE_AND_TIME_ASSIGNMENT(#229,#227,(#391));
#229=DATE_AND_TIME(#230,#231);
#230=CALENDAR_DATE(2016,19,8);
#231=LOCAL_TIME(4,5,42.,#232);
#232=COORDINATED_UNIVERSAL_TIME_OFFSET(0,0,.BEHIND.);
#233=AXIS2_PLACEMENT_3D('placement',#299,#253,#254);
#234=AXIS2_PLACEMENT_3D('',#300,#255,#256);
#235=AXIS2_PLACEMENT_3D('',#326,#257,#258);
#236=AXIS2_PLACEMENT_3D('',#327,#259,#260);
#237=AXIS2_PLACEMENT_3D('',#353,#261,#262);
#238=AXIS2_PLACEMENT_3D('',#354,#263,#264);
#239=AXIS2_PLACEMENT_3D('',#357,#267,#268);
#240=AXIS2_PLACEMENT_3D('',#360,#271,#272);
#241=AXIS2_PLACEMENT_3D('',#361,#273,#274);
#242=AXIS2_PLACEMENT_3D('',#363,#275,#276);
#243=AXIS2_PLACEMENT_3D('',#365,#277,#278);
#244=AXIS2_PLACEMENT_3D('',#366,#279,#280);
#245=AXIS2_PLACEMENT_3D('',#368,#281,#282);
#246=AXIS2_PLACEMENT_3D('',#369,#283,#284);
#247=AXIS2_PLACEMENT_3D('',#370,#285,#286);
#248=AXIS2_PLACEMENT_3D('',#372,#287,#288);
#249=AXIS2_PLACEMENT_3D('',#373,#289,#290);
#250=AXIS2_PLACEMENT_3D('',#374,#291,#292);
#251=AXIS2_PLACEMENT_3D('',#376,#294,#295);
#252=AXIS2_PLACEMENT_3D('',#378,#297,#298);
#253=DIRECTION('axis',(0.,0.,1.));
#254=DIRECTION('refdir',(1.,0.,0.));
#255=DIRECTION('center_axis',(0.,0.,1.));
#256=DIRECTION('ref_axis',(1.,0.,0.));
#257=DIRECTION('center_axis',(0.,0.,-1.));
#258=DIRECTION('ref_axis',(1.,0.,0.));
#259=DIRECTION('center_axis',(0.,0.,-1.));
#260=DIRECTION('ref_axis',(1.,0.,0.));
#261=DIRECTION('center_axis',(0.,0.,1.));
#262=DIRECTION('ref_axis',(1.,0.,0.));
#263=DIRECTION('center_axis',(0.866025403784439,0.5,0.));
#264=DIRECTION('ref_axis',(-0.5,0.866025403784439,0.));
#265=DIRECTION('',(0.,0.,-1.));
#266=DIRECTION('',(0.,0.,-1.));
#267=DIRECTION('center_axis',(-0.866025403784439,0.5,0.));
#268=DIRECTION('ref_axis',(-0.5,-0.866025403784439,0.));
#269=DIRECTION('',(0.,0.,1.));
#270=DIRECTION('',(0.,0.,-1.));
#271=DIRECTION('center_axis',(0.,1.,0.));
#272=DIRECTION('ref_axis',(-1.,0.,0.));
#273=DIRECTION('center_axis',(0.,0.,-1.));
#274=DIRECTION('ref_axis',(1.,0.,0.));
#275=DIRECTION('center_axis',(0.,0.,1.));
#276=DIRECTION('ref_axis',(1.,0.,0.));
#277=DIRECTION('center_axis',(0.,0.,-1.));
#278=DIRECTION('ref_axis',(1.,0.,0.));
#279=DIRECTION('center_axis',(0.,0.,1.));
#280=DIRECTION('ref_axis',(1.,0.,0.));
#281=DIRECTION('center_axis',(0.,0.,-1.));
#282=DIRECTION('ref_axis',(-1.,0.,0.));
#283=DIRECTION('center_axis',(0.,0.,-1.));
#284=DIRECTION('ref_axis',(-1.,0.,0.));
#285=DIRECTION('center_axis',(0.,0.,1.));
#286=DIRECTION('ref_axis',(-1.,0.,0.));
#287=DIRECTION('center_axis',(0.,0.,1.));
#288=DIRECTION('ref_axis',(-1.,0.,0.));
#289=DIRECTION('center_axis',(0.,0.,1.));
#290=DIRECTION('ref_axis',(1.,0.,0.));
#291=DIRECTION('center_axis',(0.866025403784439,-0.5,0.));
#292=DIRECTION('ref_axis',(0.5,0.866025403784439,0.));
#293=DIRECTION('',(0.,0.,-1.));
#294=DIRECTION('center_axis',(0.,-1.,0.));
#295=DIRECTION('ref_axis',(1.,0.,0.));
#296=DIRECTION('',(0.,0.,-1.));
#297=DIRECTION('center_axis',(-0.866025403784439,-0.5,0.));
#298=DIRECTION('ref_axis',(0.5,-0.866025403784439,0.));
#299=CARTESIAN_POINT('',(0.,0.,0.));
#300=CARTESIAN_POINT('Origin',(0.,0.,-4.84529946162075));
#301=CARTESIAN_POINT('',(-28.,-2.22044604925031E-15,-3.6905989232415));
#302=CARTESIAN_POINT('',(-14.,-24.2487113059643,-3.6905989232415));
#303=CARTESIAN_POINT('Ctrl Pts',(-28.,-7.17374877450101E-15,-3.6905989232415));
#304=CARTESIAN_POINT('Ctrl Pts',(-21.,-12.1243556529821,-7.73205080756888));
#305=CARTESIAN_POINT('Ctrl Pts',(-14.,-24.2487113059643,-3.6905989232415));
#306=CARTESIAN_POINT('',(-14.,24.2487113059643,-3.6905989232415));
#307=CARTESIAN_POINT('Ctrl Pts',(-14.,24.2487113059643,-3.6905989232415));
#308=CARTESIAN_POINT('Ctrl Pts',(-21.,12.1243556529821,-7.73205080756887));
#309=CARTESIAN_POINT('Ctrl Pts',(-28.,-4.78249918300067E-15,-3.6905989232415));
#310=CARTESIAN_POINT('',(14.,24.2487113059643,-3.6905989232415));
#311=CARTESIAN_POINT('Ctrl Pts',(14.,24.2487113059643,-3.6905989232415));
#312=CARTESIAN_POINT('Ctrl Pts',(0.,24.2487113059643,-7.73205080756888));
#313=CARTESIAN_POINT('Ctrl Pts',(-14.,24.2487113059643,-3.6905989232415));
#314=CARTESIAN_POINT('',(28.,0.,-3.6905989232415));
#315=CARTESIAN_POINT('Ctrl Pts',(28.,-2.39124959150034E-15,-3.6905989232415));
#316=CARTESIAN_POINT('Ctrl Pts',(21.,12.1243556529821,-7.73205080756888));
#317=CARTESIAN_POINT('Ctrl Pts',(14.,24.2487113059643,-3.6905989232415));
#318=CARTESIAN_POINT('',(14.,-24.2487113059643,-3.6905989232415));
#319=CARTESIAN_POINT('Ctrl Pts',(14.,-24.2487113059643,-3.6905989232415));
#320=CARTESIAN_POINT('Ctrl Pts',(21.,-12.1243556529821,-7.73205080756888));
#321=CARTESIAN_POINT('Ctrl Pts',(28.,-2.39124959150034E-15,-3.6905989232415));
#322=CARTESIAN_POINT('Ctrl Pts',(-14.,-24.2487113059643,-3.6905989232415));
#323=CARTESIAN_POINT('Ctrl Pts',(0.,-24.2487113059643,-7.73205080756887));
#324=CARTESIAN_POINT('Ctrl Pts',(14.,-24.2487113059643,-3.6905989232415));
#325=CARTESIAN_POINT('',(24.,0.,-6.));
#326=CARTESIAN_POINT('Origin',(0.,0.,-6.));
#327=CARTESIAN_POINT('Origin',(0.,0.,4.84529946162075));
#328=CARTESIAN_POINT('',(14.,24.2487113059643,3.6905989232415));
#329=CARTESIAN_POINT('',(28.,0.,3.6905989232415));
#330=CARTESIAN_POINT('Ctrl Pts',(14.,24.2487113059643,3.6905989232415));
#331=CARTESIAN_POINT('Ctrl Pts',(21.,12.1243556529821,7.73205080756888));
#332=CARTESIAN_POINT('Ctrl Pts',(28.,-2.39124959150034E-15,3.6905989232415));
#333=CARTESIAN_POINT('',(-14.,24.2487113059643,3.6905989232415));
#334=CARTESIAN_POINT('Ctrl Pts',(-14.,24.2487113059643,3.6905989232415));
#335=CARTESIAN_POINT('Ctrl Pts',(0.,24.2487113059643,7.73205080756888));
#336=CARTESIAN_POINT('Ctrl Pts',(14.,24.2487113059643,3.6905989232415));
#337=CARTESIAN_POINT('',(-28.,-2.22044604925031E-15,3.6905989232415));
#338=CARTESIAN_POINT('Ctrl Pts',(-28.,-4.78249918300067E-15,3.6905989232415));
#339=CARTESIAN_POINT('Ctrl Pts',(-21.,12.1243556529821,7.73205080756887));
#340=CARTESIAN_POINT('Ctrl Pts',(-14.,24.2487113059643,3.6905989232415));
#341=CARTESIAN_POINT('',(-14.,-24.2487113059643,3.6905989232415));
#342=CARTESIAN_POINT('Ctrl Pts',(-14.,-24.2487113059643,3.6905989232415));
#343=CARTESIAN_POINT('Ctrl Pts',(-21.,-12.1243556529821,7.73205080756888));
#344=CARTESIAN_POINT('Ctrl Pts',(-28.,-7.17374877450101E-15,3.6905989232415));
#345=CARTESIAN_POINT('',(14.,-24.2487113059643,3.6905989232415));
#346=CARTESIAN_POINT('Ctrl Pts',(14.,-24.2487113059643,3.6905989232415));
#347=CARTESIAN_POINT('Ctrl Pts',(0.,-24.2487113059643,7.73205080756887));
#348=CARTESIAN_POINT('Ctrl Pts',(-14.,-24.2487113059643,3.6905989232415));
#349=CARTESIAN_POINT('Ctrl Pts',(28.,-2.39124959150034E-15,3.6905989232415));
#350=CARTESIAN_POINT('Ctrl Pts',(21.,-12.1243556529821,7.73205080756888));
#351=CARTESIAN_POINT('Ctrl Pts',(14.,-24.2487113059643,3.6905989232415));
#352=CARTESIAN_POINT('',(24.,0.,6.));
#353=CARTESIAN_POINT('Origin',(0.,0.,6.));
#354=CARTESIAN_POINT('Origin',(28.,0.,0.));
#355=CARTESIAN_POINT('',(14.,24.2487113059643,0.));
#356=CARTESIAN_POINT('',(28.,-1.90037027425078E-15,0.));
#357=CARTESIAN_POINT('Origin',(-14.,24.2487113059643,0.));
#358=CARTESIAN_POINT('',(-28.,-3.50200316744163E-15,0.));
#359=CARTESIAN_POINT('',(-14.,24.2487113059643,0.));
#360=CARTESIAN_POINT('Origin',(14.,24.2487113059643,0.));
#361=CARTESIAN_POINT('Origin',(0.,0.,-5.5));
#362=CARTESIAN_POINT('',(-15.1455,-1.85478880964862E-15,-5.));
#363=CARTESIAN_POINT('Origin',(0.,0.,-5.));
#364=CARTESIAN_POINT('',(-16.1455,1.97725348956336E-15,-6.));
#365=CARTESIAN_POINT('Origin',(0.,0.,-6.));
#366=CARTESIAN_POINT('Origin',(0.,0.,-32.249));
#367=CARTESIAN_POINT('',(15.1455,-1.85478880964862E-15,5.));
#368=CARTESIAN_POINT('Origin',(0.,0.,5.));
#369=CARTESIAN_POINT('Origin',(0.,-3.96508223080413E-16,-6.));
#370=CARTESIAN_POINT('Origin',(0.,0.,5.5));
#371=CARTESIAN_POINT('',(16.1455,1.97725348956336E-15,6.));
#372=CARTESIAN_POINT('Origin',(0.,0.,6.));
#373=CARTESIAN_POINT('Origin',(0.,-3.96508223080413E-16,6.));
#374=CARTESIAN_POINT('Origin',(14.,-24.2487113059643,0.));
#375=CARTESIAN_POINT('',(14.,-24.2487113059643,0.));
#376=CARTESIAN_POINT('Origin',(-14.,-24.2487113059643,0.));
#377=CARTESIAN_POINT('',(-14.,-24.2487113059643,0.));
#378=CARTESIAN_POINT('Origin',(-28.,-4.44089209850063E-15,0.));
#379=UNCERTAINTY_MEASURE_WITH_UNIT(LENGTH_MEASURE(0.01),#383,
'DISTANCE_ACCURACY_VALUE',
'Maximum model space distance between geometric entities at asserted c
onnectivities');
#380=UNCERTAINTY_MEASURE_WITH_UNIT(LENGTH_MEASURE(0.01),#383,
'DISTANCE_ACCURACY_VALUE',
'Maximum model space distance between geometric entities at asserted c
onnectivities');
#381=(
GEOMETRIC_REPRESENTATION_CONTEXT(3)
GLOBAL_UNCERTAINTY_ASSIGNED_CONTEXT((#379))
GLOBAL_UNIT_ASSIGNED_CONTEXT((#383,#386,#385))
REPRESENTATION_CONTEXT('','3D')
);
#382=(
GEOMETRIC_REPRESENTATION_CONTEXT(3)
GLOBAL_UNCERTAINTY_ASSIGNED_CONTEXT((#380))
GLOBAL_UNIT_ASSIGNED_CONTEXT((#383,#386,#385))
REPRESENTATION_CONTEXT('','3D')
);
#383=(
LENGTH_UNIT()
NAMED_UNIT(*)
SI_UNIT(.MILLI.,.METRE.)
);
#384=(
LENGTH_UNIT()
NAMED_UNIT(*)
SI_UNIT(.CENTI.,.METRE.)
);
#385=(
NAMED_UNIT(*)
SI_UNIT($,.STERADIAN.)
SOLID_ANGLE_UNIT()
);
#386=(
NAMED_UNIT(*)
PLANE_ANGLE_UNIT()
SI_UNIT($,.RADIAN.)
);
#387=SHAPE_DEFINITION_REPRESENTATION(#388,#389);
#388=PRODUCT_DEFINITION_SHAPE('',$,#391);
#389=SHAPE_REPRESENTATION('',(#233),#381);
#390=PRODUCT_DEFINITION_CONTEXT('part definition',#395,'design');
#391=PRODUCT_DEFINITION('#74SS_1','#74SS_1',#392,#390);
#392=PRODUCT_DEFINITION_FORMATION('',$,#397);
#393=PRODUCT_RELATED_PRODUCT_CATEGORY('#74SS_1','#74SS_1',(#397));
#394=APPLICATION_PROTOCOL_DEFINITION('international standard',
'automotive_design',2009,#395);
#395=APPLICATION_CONTEXT(
'Core Data for Automotive Mechanical Design Process');
#396=PRODUCT_CONTEXT('part definition',#395,'mechanical');
#397=PRODUCT('#74SS_1','#74SS_1',$,(#396));
#398=PRESENTATION_STYLE_ASSIGNMENT((#400));
#399=PRESENTATION_STYLE_ASSIGNMENT((#401));
#400=SURFACE_STYLE_USAGE(.BOTH.,#402);
#401=SURFACE_STYLE_USAGE(.BOTH.,#403);
#402=SURFACE_SIDE_STYLE('',(#404));
#403=SURFACE_SIDE_STYLE('',(#405));
#404=SURFACE_STYLE_FILL_AREA(#406);
#405=SURFACE_STYLE_FILL_AREA(#407);
#406=FILL_AREA_STYLE('',(#408));
#407=FILL_AREA_STYLE('',(#409));
#408=FILL_AREA_STYLE_COLOUR('',#410);
#409=FILL_AREA_STYLE_COLOUR('',#411);
#410=COLOUR_RGB('',0.749019607843137,0.749019607843137,0.749019607843137);
#411=COLOUR_RGB('',0.745098039215686,0.737254901960784,0.729411764705882);
ENDSEC;
END-ISO-10303-21;
