ISO-10303-21;
HEADER;
/* Generated by software containing ST-Developer
 * from STEP Tools, Inc. (www.steptools.com) 
 */

FILE_DESCRIPTION(
/* description */ ('1/2" FEMALE ELBOW'),
/* implementation_level */ '2;1');

FILE_NAME(
/* name */ 'C:\\Users\\daud\\Desktop\\#34_1-2.stp',
/* time_stamp */ '2018-05-02T14:42:51+10:00',
/* author */ ('daud'),
/* organization */ (''),
/* preprocessor_version */ 'ST-DEVELOPER v16.13',
/* originating_system */ 'Autodesk Inventor 2018',
/* authorisation */ '');

FILE_SCHEMA (('AUTOMOTIVE_DESIGN { 1 0 10303 214 3 1 1 }'));
ENDSEC;

DATA;
#10=MECHANICAL_DESIGN_GEOMETRIC_PRESENTATION_REPRESENTATION('',(#13),#452);
#11=SHAPE_REPRESENTATION_RELATIONSHIP('SRR','None',#459,#12);
#12=ADVANCED_BREP_SHAPE_REPRESENTATION('',(#14),#451);
#13=STYLED_ITEM('',(#468),#14);
#14=MANIFOLD_SOLID_BREP('Solid1',#236);
#15=SPHERICAL_SURFACE('',#291,14.25);
#16=PLANE('',#264);
#17=PLANE('',#273);
#18=PLANE('',#275);
#19=PLANE('',#276);
#20=PLANE('',#283);
#21=PLANE('',#284);
#22=PLANE('',#285);
#23=PLANE('',#287);
#24=LINE('',#399,#29);
#25=LINE('',#403,#30);
#26=LINE('',#415,#31);
#27=LINE('',#418,#32);
#28=LINE('',#425,#33);
#29=VECTOR('',#311,10.);
#30=VECTOR('',#314,10.);
#31=VECTOR('',#329,10.);
#32=VECTOR('',#332,10.);
#33=VECTOR('',#343,10.);
#34=ELLIPSE('',#260,13.7885822331377,9.75);
#35=ELLIPSE('',#261,13.7885822331377,9.75);
#36=ELLIPSE('',#263,13.7885822331377,9.75);
#37=ELLIPSE('',#271,13.7885822331377,9.75);
#38=ELLIPSE('',#272,13.7885822331377,9.75);
#39=ELLIPSE('',#279,13.7885822331377,9.75);
#40=ELLIPSE('',#282,13.7885822331377,9.75);
#41=ELLIPSE('',#295,20.1525432638166,14.25);
#42=CYLINDRICAL_SURFACE('',#259,9.75);
#43=CYLINDRICAL_SURFACE('',#269,9.75);
#44=CYLINDRICAL_SURFACE('',#278,9.75);
#45=CYLINDRICAL_SURFACE('',#280,9.75);
#46=CYLINDRICAL_SURFACE('',#289,9.75);
#47=CYLINDRICAL_SURFACE('',#290,9.75);
#48=CYLINDRICAL_SURFACE('',#294,14.25);
#49=CYLINDRICAL_SURFACE('',#296,14.25);
#50=FACE_BOUND('',#78,.T.);
#51=FACE_BOUND('',#80,.T.);
#52=FACE_BOUND('',#82,.T.);
#53=FACE_BOUND('',#84,.T.);
#54=FACE_BOUND('',#86,.T.);
#55=FACE_BOUND('',#88,.T.);
#56=FACE_BOUND('',#101,.T.);
#57=FACE_BOUND('',#103,.T.);
#58=FACE_OUTER_BOUND('',#77,.T.);
#59=FACE_OUTER_BOUND('',#79,.T.);
#60=FACE_OUTER_BOUND('',#81,.T.);
#61=FACE_OUTER_BOUND('',#83,.T.);
#62=FACE_OUTER_BOUND('',#85,.T.);
#63=FACE_OUTER_BOUND('',#87,.T.);
#64=FACE_OUTER_BOUND('',#89,.T.);
#65=FACE_OUTER_BOUND('',#90,.T.);
#66=FACE_OUTER_BOUND('',#91,.T.);
#67=FACE_OUTER_BOUND('',#92,.T.);
#68=FACE_OUTER_BOUND('',#93,.T.);
#69=FACE_OUTER_BOUND('',#94,.T.);
#70=FACE_OUTER_BOUND('',#95,.T.);
#71=FACE_OUTER_BOUND('',#96,.T.);
#72=FACE_OUTER_BOUND('',#97,.T.);
#73=FACE_OUTER_BOUND('',#98,.T.);
#74=FACE_OUTER_BOUND('',#99,.T.);
#75=FACE_OUTER_BOUND('',#100,.T.);
#76=FACE_OUTER_BOUND('',#102,.T.);
#77=EDGE_LOOP('',(#161));
#78=EDGE_LOOP('',(#162));
#79=EDGE_LOOP('',(#163,#164,#165,#166,#167,#168));
#80=EDGE_LOOP('',(#169));
#81=EDGE_LOOP('',(#170));
#82=EDGE_LOOP('',(#171));
#83=EDGE_LOOP('',(#172));
#84=EDGE_LOOP('',(#173));
#85=EDGE_LOOP('',(#174,#175,#176,#177,#178,#179));
#86=EDGE_LOOP('',(#180));
#87=EDGE_LOOP('',(#181));
#88=EDGE_LOOP('',(#182));
#89=EDGE_LOOP('',(#183,#184));
#90=EDGE_LOOP('',(#185,#186));
#91=EDGE_LOOP('',(#187,#188,#189));
#92=EDGE_LOOP('',(#190,#191,#192));
#93=EDGE_LOOP('',(#193,#194));
#94=EDGE_LOOP('',(#195,#196));
#95=EDGE_LOOP('',(#197,#198));
#96=EDGE_LOOP('',(#199,#200));
#97=EDGE_LOOP('',(#201,#202,#203));
#98=EDGE_LOOP('',(#204,#205,#206));
#99=EDGE_LOOP('',(#207,#208));
#100=EDGE_LOOP('',(#209,#210));
#101=EDGE_LOOP('',(#211));
#102=EDGE_LOOP('',(#212,#213));
#103=EDGE_LOOP('',(#214));
#104=CIRCLE('',#257,9.75);
#105=CIRCLE('',#258,11.25);
#106=CIRCLE('',#262,9.75);
#107=CIRCLE('',#265,14.25);
#108=CIRCLE('',#267,9.75);
#109=CIRCLE('',#268,11.25);
#110=CIRCLE('',#270,9.75);
#111=CIRCLE('',#274,14.25);
#112=CIRCLE('',#277,9.75);
#113=CIRCLE('',#281,9.75);
#114=CIRCLE('',#286,9.75);
#115=CIRCLE('',#288,9.75);
#116=CIRCLE('',#292,14.25);
#117=CIRCLE('',#293,14.25);
#118=VERTEX_POINT('',#388);
#119=VERTEX_POINT('',#390);
#120=VERTEX_POINT('',#393);
#121=VERTEX_POINT('',#394);
#122=VERTEX_POINT('',#396);
#123=VERTEX_POINT('',#398);
#124=VERTEX_POINT('',#400);
#125=VERTEX_POINT('',#402);
#126=VERTEX_POINT('',#406);
#127=VERTEX_POINT('',#409);
#128=VERTEX_POINT('',#411);
#129=VERTEX_POINT('',#414);
#130=VERTEX_POINT('',#417);
#131=VERTEX_POINT('',#422);
#132=VERTEX_POINT('',#442);
#133=VERTEX_POINT('',#443);
#134=EDGE_CURVE('',#118,#118,#104,.T.);
#135=EDGE_CURVE('',#119,#119,#105,.T.);
#136=EDGE_CURVE('',#120,#121,#34,.T.);
#137=EDGE_CURVE('',#120,#122,#35,.T.);
#138=EDGE_CURVE('',#123,#122,#24,.T.);
#139=EDGE_CURVE('',#124,#123,#106,.T.);
#140=EDGE_CURVE('',#124,#125,#25,.T.);
#141=EDGE_CURVE('',#125,#121,#36,.T.);
#142=EDGE_CURVE('',#126,#126,#107,.T.);
#143=EDGE_CURVE('',#127,#127,#108,.T.);
#144=EDGE_CURVE('',#128,#128,#109,.T.);
#145=EDGE_CURVE('',#129,#124,#26,.T.);
#146=EDGE_CURVE('',#123,#124,#110,.T.);
#147=EDGE_CURVE('',#123,#130,#27,.T.);
#148=EDGE_CURVE('',#130,#120,#37,.T.);
#149=EDGE_CURVE('',#121,#129,#38,.T.);
#150=EDGE_CURVE('',#131,#131,#111,.T.);
#151=EDGE_CURVE('',#124,#123,#28,.T.);
#152=EDGE_CURVE('',#129,#124,#112,.T.);
#153=EDGE_CURVE('',#124,#121,#39,.T.);
#154=EDGE_CURVE('',#123,#130,#113,.T.);
#155=EDGE_CURVE('',#120,#123,#40,.T.);
#156=EDGE_CURVE('',#122,#123,#114,.T.);
#157=EDGE_CURVE('',#124,#125,#115,.T.);
#158=EDGE_CURVE('',#132,#133,#116,.T.);
#159=EDGE_CURVE('',#132,#133,#117,.T.);
#160=EDGE_CURVE('',#132,#133,#41,.T.);
#161=ORIENTED_EDGE('',*,*,#134,.T.);
#162=ORIENTED_EDGE('',*,*,#135,.T.);
#163=ORIENTED_EDGE('',*,*,#136,.F.);
#164=ORIENTED_EDGE('',*,*,#137,.T.);
#165=ORIENTED_EDGE('',*,*,#138,.F.);
#166=ORIENTED_EDGE('',*,*,#139,.F.);
#167=ORIENTED_EDGE('',*,*,#140,.T.);
#168=ORIENTED_EDGE('',*,*,#141,.T.);
#169=ORIENTED_EDGE('',*,*,#134,.F.);
#170=ORIENTED_EDGE('',*,*,#142,.F.);
#171=ORIENTED_EDGE('',*,*,#135,.F.);
#172=ORIENTED_EDGE('',*,*,#143,.T.);
#173=ORIENTED_EDGE('',*,*,#144,.T.);
#174=ORIENTED_EDGE('',*,*,#145,.T.);
#175=ORIENTED_EDGE('',*,*,#146,.F.);
#176=ORIENTED_EDGE('',*,*,#147,.T.);
#177=ORIENTED_EDGE('',*,*,#148,.T.);
#178=ORIENTED_EDGE('',*,*,#136,.T.);
#179=ORIENTED_EDGE('',*,*,#149,.T.);
#180=ORIENTED_EDGE('',*,*,#143,.F.);
#181=ORIENTED_EDGE('',*,*,#150,.T.);
#182=ORIENTED_EDGE('',*,*,#144,.F.);
#183=ORIENTED_EDGE('',*,*,#151,.F.);
#184=ORIENTED_EDGE('',*,*,#139,.T.);
#185=ORIENTED_EDGE('',*,*,#145,.F.);
#186=ORIENTED_EDGE('',*,*,#152,.T.);
#187=ORIENTED_EDGE('',*,*,#149,.F.);
#188=ORIENTED_EDGE('',*,*,#153,.F.);
#189=ORIENTED_EDGE('',*,*,#152,.F.);
#190=ORIENTED_EDGE('',*,*,#148,.F.);
#191=ORIENTED_EDGE('',*,*,#154,.F.);
#192=ORIENTED_EDGE('',*,*,#155,.F.);
#193=ORIENTED_EDGE('',*,*,#147,.F.);
#194=ORIENTED_EDGE('',*,*,#154,.T.);
#195=ORIENTED_EDGE('',*,*,#151,.T.);
#196=ORIENTED_EDGE('',*,*,#146,.T.);
#197=ORIENTED_EDGE('',*,*,#138,.T.);
#198=ORIENTED_EDGE('',*,*,#156,.T.);
#199=ORIENTED_EDGE('',*,*,#140,.F.);
#200=ORIENTED_EDGE('',*,*,#157,.T.);
#201=ORIENTED_EDGE('',*,*,#155,.T.);
#202=ORIENTED_EDGE('',*,*,#156,.F.);
#203=ORIENTED_EDGE('',*,*,#137,.F.);
#204=ORIENTED_EDGE('',*,*,#153,.T.);
#205=ORIENTED_EDGE('',*,*,#141,.F.);
#206=ORIENTED_EDGE('',*,*,#157,.F.);
#207=ORIENTED_EDGE('',*,*,#158,.F.);
#208=ORIENTED_EDGE('',*,*,#159,.T.);
#209=ORIENTED_EDGE('',*,*,#160,.F.);
#210=ORIENTED_EDGE('',*,*,#158,.T.);
#211=ORIENTED_EDGE('',*,*,#150,.F.);
#212=ORIENTED_EDGE('',*,*,#160,.T.);
#213=ORIENTED_EDGE('',*,*,#159,.F.);
#214=ORIENTED_EDGE('',*,*,#142,.T.);
#215=CONICAL_SURFACE('',#256,10.5,0.785398163397448);
#216=CONICAL_SURFACE('',#266,10.5,0.785398163397449);
#217=ADVANCED_FACE('',(#58,#50),#215,.F.);
#218=ADVANCED_FACE('',(#59,#51),#42,.F.);
#219=ADVANCED_FACE('',(#60,#52),#16,.F.);
#220=ADVANCED_FACE('',(#61,#53),#216,.F.);
#221=ADVANCED_FACE('',(#62,#54),#43,.F.);
#222=ADVANCED_FACE('',(#63,#55),#17,.T.);
#223=ADVANCED_FACE('',(#64),#18,.F.);
#224=ADVANCED_FACE('',(#65),#19,.F.);
#225=ADVANCED_FACE('',(#66),#44,.F.);
#226=ADVANCED_FACE('',(#67),#45,.F.);
#227=ADVANCED_FACE('',(#68),#20,.F.);
#228=ADVANCED_FACE('',(#69),#21,.F.);
#229=ADVANCED_FACE('',(#70),#22,.F.);
#230=ADVANCED_FACE('',(#71),#23,.F.);
#231=ADVANCED_FACE('',(#72),#46,.F.);
#232=ADVANCED_FACE('',(#73),#47,.F.);
#233=ADVANCED_FACE('',(#74),#15,.T.);
#234=ADVANCED_FACE('',(#75,#56),#48,.T.);
#235=ADVANCED_FACE('',(#76,#57),#49,.T.);
#236=CLOSED_SHELL('',(#217,#218,#219,#220,#221,#222,#223,#224,#225,#226,
#227,#228,#229,#230,#231,#232,#233,#234,#235));
#237=DERIVED_UNIT_ELEMENT(#239,1.);
#238=DERIVED_UNIT_ELEMENT(#454,3.);
#239=(
MASS_UNIT()
NAMED_UNIT(*)
SI_UNIT($,.GRAM.)
);
#240=DERIVED_UNIT((#237,#238));
#241=MEASURE_REPRESENTATION_ITEM('density measure',
POSITIVE_RATIO_MEASURE(1.),#240);
#242=PROPERTY_DEFINITION_REPRESENTATION(#247,#244);
#243=PROPERTY_DEFINITION_REPRESENTATION(#248,#245);
#244=REPRESENTATION('material name',(#246),#451);
#245=REPRESENTATION('density',(#241),#451);
#246=DESCRIPTIVE_REPRESENTATION_ITEM('Generic','Generic');
#247=PROPERTY_DEFINITION('material property','material name',#461);
#248=PROPERTY_DEFINITION('material property','density of part',#461);
#249=DATE_TIME_ROLE('creation_date');
#250=APPLIED_DATE_AND_TIME_ASSIGNMENT(#251,#249,(#461));
#251=DATE_AND_TIME(#252,#253);
#252=CALENDAR_DATE(2012,14,6);
#253=LOCAL_TIME(6,7,2.,#254);
#254=COORDINATED_UNIVERSAL_TIME_OFFSET(0,0,.BEHIND.);
#255=AXIS2_PLACEMENT_3D('placement',#386,#297,#298);
#256=AXIS2_PLACEMENT_3D('',#387,#299,#300);
#257=AXIS2_PLACEMENT_3D('',#389,#301,#302);
#258=AXIS2_PLACEMENT_3D('',#391,#303,#304);
#259=AXIS2_PLACEMENT_3D('',#392,#305,#306);
#260=AXIS2_PLACEMENT_3D('',#395,#307,#308);
#261=AXIS2_PLACEMENT_3D('',#397,#309,#310);
#262=AXIS2_PLACEMENT_3D('',#401,#312,#313);
#263=AXIS2_PLACEMENT_3D('',#404,#315,#316);
#264=AXIS2_PLACEMENT_3D('',#405,#317,#318);
#265=AXIS2_PLACEMENT_3D('',#407,#319,#320);
#266=AXIS2_PLACEMENT_3D('',#408,#321,#322);
#267=AXIS2_PLACEMENT_3D('',#410,#323,#324);
#268=AXIS2_PLACEMENT_3D('',#412,#325,#326);
#269=AXIS2_PLACEMENT_3D('',#413,#327,#328);
#270=AXIS2_PLACEMENT_3D('',#416,#330,#331);
#271=AXIS2_PLACEMENT_3D('',#419,#333,#334);
#272=AXIS2_PLACEMENT_3D('',#420,#335,#336);
#273=AXIS2_PLACEMENT_3D('',#421,#337,#338);
#274=AXIS2_PLACEMENT_3D('',#423,#339,#340);
#275=AXIS2_PLACEMENT_3D('',#424,#341,#342);
#276=AXIS2_PLACEMENT_3D('',#426,#344,#345);
#277=AXIS2_PLACEMENT_3D('',#427,#346,#347);
#278=AXIS2_PLACEMENT_3D('',#428,#348,#349);
#279=AXIS2_PLACEMENT_3D('',#429,#350,#351);
#280=AXIS2_PLACEMENT_3D('',#430,#352,#353);
#281=AXIS2_PLACEMENT_3D('',#431,#354,#355);
#282=AXIS2_PLACEMENT_3D('',#432,#356,#357);
#283=AXIS2_PLACEMENT_3D('',#433,#358,#359);
#284=AXIS2_PLACEMENT_3D('',#434,#360,#361);
#285=AXIS2_PLACEMENT_3D('',#435,#362,#363);
#286=AXIS2_PLACEMENT_3D('',#436,#364,#365);
#287=AXIS2_PLACEMENT_3D('',#437,#366,#367);
#288=AXIS2_PLACEMENT_3D('',#438,#368,#369);
#289=AXIS2_PLACEMENT_3D('',#439,#370,#371);
#290=AXIS2_PLACEMENT_3D('',#440,#372,#373);
#291=AXIS2_PLACEMENT_3D('',#441,#374,#375);
#292=AXIS2_PLACEMENT_3D('',#444,#376,#377);
#293=AXIS2_PLACEMENT_3D('',#445,#378,#379);
#294=AXIS2_PLACEMENT_3D('',#446,#380,#381);
#295=AXIS2_PLACEMENT_3D('',#447,#382,#383);
#296=AXIS2_PLACEMENT_3D('',#448,#384,#385);
#297=DIRECTION('axis',(0.,0.,1.));
#298=DIRECTION('refdir',(1.,0.,0.));
#299=DIRECTION('center_axis',(0.,0.,1.));
#300=DIRECTION('ref_axis',(-1.,0.,0.));
#301=DIRECTION('center_axis',(0.,0.,-1.));
#302=DIRECTION('ref_axis',(-1.,0.,0.));
#303=DIRECTION('center_axis',(0.,0.,1.));
#304=DIRECTION('ref_axis',(-1.,0.,0.));
#305=DIRECTION('center_axis',(0.,0.,1.));
#306=DIRECTION('ref_axis',(-1.,0.,0.));
#307=DIRECTION('center_axis',(0.707106781186547,0.,0.707106781186548));
#308=DIRECTION('ref_axis',(-0.707106781186548,0.,0.707106781186547));
#309=DIRECTION('center_axis',(0.707106781186548,0.,-0.707106781186548));
#310=DIRECTION('ref_axis',(-0.707106781186548,0.,-0.707106781186548));
#311=DIRECTION('',(0.,0.,1.));
#312=DIRECTION('center_axis',(0.,0.,1.));
#313=DIRECTION('ref_axis',(-1.,0.,0.));
#314=DIRECTION('',(0.,0.,1.));
#315=DIRECTION('center_axis',(0.707106781186548,0.,-0.707106781186548));
#316=DIRECTION('ref_axis',(-0.707106781186548,0.,-0.707106781186548));
#317=DIRECTION('center_axis',(0.,0.,-1.));
#318=DIRECTION('ref_axis',(-1.,0.,0.));
#319=DIRECTION('center_axis',(0.,0.,-1.));
#320=DIRECTION('ref_axis',(-1.,0.,0.));
#321=DIRECTION('center_axis',(-1.,0.,0.));
#322=DIRECTION('ref_axis',(0.,-1.,0.));
#323=DIRECTION('center_axis',(1.,0.,0.));
#324=DIRECTION('ref_axis',(0.,-1.,0.));
#325=DIRECTION('center_axis',(-1.,0.,0.));
#326=DIRECTION('ref_axis',(0.,-1.,0.));
#327=DIRECTION('center_axis',(1.,0.,0.));
#328=DIRECTION('ref_axis',(0.,-1.,0.));
#329=DIRECTION('',(1.,0.,0.));
#330=DIRECTION('center_axis',(-1.,0.,0.));
#331=DIRECTION('ref_axis',(0.,0.,-1.));
#332=DIRECTION('',(-1.,0.,0.));
#333=DIRECTION('center_axis',(0.707106781186547,0.,-0.707106781186548));
#334=DIRECTION('ref_axis',(-0.707106781186548,0.,-0.707106781186547));
#335=DIRECTION('center_axis',(0.707106781186547,0.,-0.707106781186548));
#336=DIRECTION('ref_axis',(-0.707106781186548,0.,-0.707106781186547));
#337=DIRECTION('center_axis',(-1.,0.,0.));
#338=DIRECTION('ref_axis',(0.,0.,1.));
#339=DIRECTION('center_axis',(-1.,0.,0.));
#340=DIRECTION('ref_axis',(0.,-1.,0.));
#341=DIRECTION('center_axis',(0.,0.,-1.));
#342=DIRECTION('ref_axis',(-1.,0.,0.));
#343=DIRECTION('',(0.,1.,0.));
#344=DIRECTION('center_axis',(0.,0.,-1.));
#345=DIRECTION('ref_axis',(-1.,0.,0.));
#346=DIRECTION('center_axis',(0.,0.,1.));
#347=DIRECTION('ref_axis',(-1.,0.,0.));
#348=DIRECTION('center_axis',(0.,0.,-1.));
#349=DIRECTION('ref_axis',(-1.,0.,0.));
#350=DIRECTION('center_axis',(-0.707106781186547,0.,-0.707106781186548));
#351=DIRECTION('ref_axis',(-0.707106781186548,0.,0.707106781186547));
#352=DIRECTION('center_axis',(0.,0.,-1.));
#353=DIRECTION('ref_axis',(-1.,0.,0.));
#354=DIRECTION('center_axis',(0.,0.,1.));
#355=DIRECTION('ref_axis',(-1.,0.,0.));
#356=DIRECTION('center_axis',(-0.707106781186547,0.,-0.707106781186548));
#357=DIRECTION('ref_axis',(-0.707106781186548,0.,0.707106781186547));
#358=DIRECTION('center_axis',(0.,0.,-1.));
#359=DIRECTION('ref_axis',(-1.,0.,0.));
#360=DIRECTION('center_axis',(1.,0.,0.));
#361=DIRECTION('ref_axis',(0.,0.,-1.));
#362=DIRECTION('center_axis',(1.,0.,0.));
#363=DIRECTION('ref_axis',(0.,0.,-1.));
#364=DIRECTION('center_axis',(-1.,0.,0.));
#365=DIRECTION('ref_axis',(0.,0.,-1.));
#366=DIRECTION('center_axis',(1.,0.,0.));
#367=DIRECTION('ref_axis',(0.,0.,-1.));
#368=DIRECTION('center_axis',(-1.,0.,0.));
#369=DIRECTION('ref_axis',(0.,0.,-1.));
#370=DIRECTION('center_axis',(1.,0.,0.));
#371=DIRECTION('ref_axis',(0.,-1.,0.));
#372=DIRECTION('center_axis',(1.,0.,0.));
#373=DIRECTION('ref_axis',(0.,-1.,0.));
#374=DIRECTION('center_axis',(6.12323399573677E-17,0.,1.));
#375=DIRECTION('ref_axis',(1.,0.,0.));
#376=DIRECTION('center_axis',(-1.,0.,0.));
#377=DIRECTION('ref_axis',(0.,-1.,0.));
#378=DIRECTION('center_axis',(0.,0.,-1.));
#379=DIRECTION('ref_axis',(-1.,0.,0.));
#380=DIRECTION('center_axis',(1.,0.,0.));
#381=DIRECTION('ref_axis',(0.,-1.,0.));
#382=DIRECTION('center_axis',(0.707106781186548,0.,0.707106781186548));
#383=DIRECTION('ref_axis',(0.707106781186548,0.,-0.707106781186548));
#384=DIRECTION('center_axis',(0.,0.,1.));
#385=DIRECTION('ref_axis',(-1.,0.,0.));
#386=CARTESIAN_POINT('',(0.,0.,0.));
#387=CARTESIAN_POINT('Origin',(0.,0.,29.));
#388=CARTESIAN_POINT('',(9.75,-1.19403062916867E-15,28.25));
#389=CARTESIAN_POINT('Origin',(0.,0.,28.25));
#390=CARTESIAN_POINT('',(11.25,1.37772764904077E-15,29.75));
#391=CARTESIAN_POINT('Origin',(0.,0.,29.75));
#392=CARTESIAN_POINT('Origin',(0.,0.,0.));
#393=CARTESIAN_POINT('',(0.,9.75,1.19403062916867E-15));
#394=CARTESIAN_POINT('',(0.,-9.75,0.));
#395=CARTESIAN_POINT('Origin',(0.,0.,-4.44089209850063E-15));
#396=CARTESIAN_POINT('',(5.,8.3703345213916,5.));
#397=CARTESIAN_POINT('Origin',(0.,4.75324360465335E-16,0.));
#398=CARTESIAN_POINT('',(5.,8.37033452139161,-5.));
#399=CARTESIAN_POINT('',(5.,8.37033452139161,29.75));
#400=CARTESIAN_POINT('',(5.,-8.37033452139161,-5.));
#401=CARTESIAN_POINT('Origin',(0.,0.,-5.));
#402=CARTESIAN_POINT('',(5.,-8.3703345213916,5.));
#403=CARTESIAN_POINT('',(5.,-8.37033452139161,0.));
#404=CARTESIAN_POINT('Origin',(0.,4.75324360465335E-16,0.));
#405=CARTESIAN_POINT('Origin',(0.,0.,29.75));
#406=CARTESIAN_POINT('',(14.25,1.74512168878498E-15,29.75));
#407=CARTESIAN_POINT('Origin',(0.,0.,29.75));
#408=CARTESIAN_POINT('Origin',(-29.,4.75324360465335E-16,0.));
#409=CARTESIAN_POINT('',(-28.25,9.75,1.19403062916867E-15));
#410=CARTESIAN_POINT('Origin',(-28.25,4.75324360465335E-16,0.));
#411=CARTESIAN_POINT('',(-29.75,11.25,-1.37772764904077E-15));
#412=CARTESIAN_POINT('Origin',(-29.75,4.75324360465335E-16,0.));
#413=CARTESIAN_POINT('Origin',(-29.75,4.75324360465335E-16,0.));
#414=CARTESIAN_POINT('',(-5.,-8.3703345213916,-5.));
#415=CARTESIAN_POINT('',(-29.75,-8.3703345213916,-5.));
#416=CARTESIAN_POINT('Origin',(5.,4.75324360465335E-16,0.));
#417=CARTESIAN_POINT('',(-5.,8.3703345213916,-5.));
#418=CARTESIAN_POINT('',(-29.75,8.3703345213916,-5.));
#419=CARTESIAN_POINT('Origin',(0.,0.,-4.44089209850063E-15));
#420=CARTESIAN_POINT('Origin',(0.,0.,-4.44089209850063E-15));
#421=CARTESIAN_POINT('Origin',(-29.75,4.75324360465335E-16,0.));
#422=CARTESIAN_POINT('',(-29.75,14.25,1.74512168878498E-15));
#423=CARTESIAN_POINT('Origin',(-29.75,4.75324360465335E-16,0.));
#424=CARTESIAN_POINT('Origin',(0.,0.,-5.));
#425=CARTESIAN_POINT('',(5.,2.37662180232667E-16,-5.));
#426=CARTESIAN_POINT('Origin',(0.,0.,-5.));
#427=CARTESIAN_POINT('Origin',(0.,0.,-5.));
#428=CARTESIAN_POINT('Origin',(0.,0.,29.75));
#429=CARTESIAN_POINT('Origin',(0.,0.,-4.44089209850063E-15));
#430=CARTESIAN_POINT('Origin',(0.,0.,29.75));
#431=CARTESIAN_POINT('Origin',(0.,0.,-5.));
#432=CARTESIAN_POINT('Origin',(0.,0.,-4.44089209850063E-15));
#433=CARTESIAN_POINT('Origin',(0.,0.,-5.));
#434=CARTESIAN_POINT('Origin',(5.,4.75324360465335E-16,0.));
#435=CARTESIAN_POINT('Origin',(5.,4.75324360465335E-16,0.));
#436=CARTESIAN_POINT('Origin',(5.,4.75324360465335E-16,0.));
#437=CARTESIAN_POINT('Origin',(5.,4.75324360465335E-16,0.));
#438=CARTESIAN_POINT('Origin',(5.,4.75324360465335E-16,0.));
#439=CARTESIAN_POINT('Origin',(-29.75,4.75324360465335E-16,0.));
#440=CARTESIAN_POINT('Origin',(-29.75,4.75324360465335E-16,0.));
#441=CARTESIAN_POINT('Origin',(0.,0.,0.));
#442=CARTESIAN_POINT('',(0.,14.25,1.74512168878498E-15));
#443=CARTESIAN_POINT('',(0.,-14.25,0.));
#444=CARTESIAN_POINT('Origin',(0.,4.75324360465335E-16,0.));
#445=CARTESIAN_POINT('Origin',(0.,0.,0.));
#446=CARTESIAN_POINT('Origin',(-29.75,4.75324360465335E-16,0.));
#447=CARTESIAN_POINT('Origin',(4.44089209850063E-15,4.75324360465335E-16,
0.));
#448=CARTESIAN_POINT('Origin',(0.,0.,0.));
#449=UNCERTAINTY_MEASURE_WITH_UNIT(LENGTH_MEASURE(0.01),#453,
'DISTANCE_ACCURACY_VALUE',
'Maximum model space distance between geometric entities at asserted c
onnectivities');
#450=UNCERTAINTY_MEASURE_WITH_UNIT(LENGTH_MEASURE(0.01),#453,
'DISTANCE_ACCURACY_VALUE',
'Maximum model space distance between geometric entities at asserted c
onnectivities');
#451=(
GEOMETRIC_REPRESENTATION_CONTEXT(3)
GLOBAL_UNCERTAINTY_ASSIGNED_CONTEXT((#449))
GLOBAL_UNIT_ASSIGNED_CONTEXT((#453,#456,#455))
REPRESENTATION_CONTEXT('','3D')
);
#452=(
GEOMETRIC_REPRESENTATION_CONTEXT(3)
GLOBAL_UNCERTAINTY_ASSIGNED_CONTEXT((#450))
GLOBAL_UNIT_ASSIGNED_CONTEXT((#453,#456,#455))
REPRESENTATION_CONTEXT('','3D')
);
#453=(
LENGTH_UNIT()
NAMED_UNIT(*)
SI_UNIT(.MILLI.,.METRE.)
);
#454=(
LENGTH_UNIT()
NAMED_UNIT(*)
SI_UNIT(.CENTI.,.METRE.)
);
#455=(
NAMED_UNIT(*)
SI_UNIT($,.STERADIAN.)
SOLID_ANGLE_UNIT()
);
#456=(
NAMED_UNIT(*)
PLANE_ANGLE_UNIT()
SI_UNIT($,.RADIAN.)
);
#457=SHAPE_DEFINITION_REPRESENTATION(#458,#459);
#458=PRODUCT_DEFINITION_SHAPE('',$,#461);
#459=SHAPE_REPRESENTATION('',(#255),#451);
#460=PRODUCT_DEFINITION_CONTEXT('part definition',#465,'design');
#461=PRODUCT_DEFINITION('#34_1-2','#34_1-2',#462,#460);
#462=PRODUCT_DEFINITION_FORMATION('',$,#467);
#463=PRODUCT_RELATED_PRODUCT_CATEGORY('#34_1-2','#34_1-2',(#467));
#464=APPLICATION_PROTOCOL_DEFINITION('international standard',
'automotive_design',2009,#465);
#465=APPLICATION_CONTEXT(
'Core Data for Automotive Mechanical Design Process');
#466=PRODUCT_CONTEXT('part definition',#465,'mechanical');
#467=PRODUCT('#34_1-2','#34_1-2','1/2" FEMALE ELBOW',(#466));
#468=PRESENTATION_STYLE_ASSIGNMENT((#469));
#469=SURFACE_STYLE_USAGE(.BOTH.,#470);
#470=SURFACE_SIDE_STYLE('',(#471));
#471=SURFACE_STYLE_FILL_AREA(#472);
#472=FILL_AREA_STYLE('',(#473));
#473=FILL_AREA_STYLE_COLOUR('',#474);
#474=COLOUR_RGB('',0.752941176470588,0.752941176470588,0.752941176470588);
ENDSEC;
END-ISO-10303-21;
