ISO-10303-21;
HEADER;
/* Generated by software containing ST-Developer
 * from STEP Tools, Inc. (www.steptools.com) 
 */

FILE_DESCRIPTION(
/* description */ (''),
/* implementation_level */ '2;1');

FILE_NAME(
/* name */ 'C:\\Users\\daud\\Desktop\\31SS3445-16.stp',
/* time_stamp */ '2018-05-02T15:09:21+10:00',
/* author */ ('daud'),
/* organization */ (''),
/* preprocessor_version */ 'ST-DEVELOPER v16.13',
/* originating_system */ 'Autodesk Inventor 2018',
/* authorisation */ '');

FILE_SCHEMA (('AUTOMOTIVE_DESIGN { 1 0 10303 214 3 1 1 }'));
ENDSEC;

DATA;
#10=MECHANICAL_DESIGN_GEOMETRIC_PRESENTATION_REPRESENTATION('',(#76,#75,
#74),#163);
#11=SHAPE_REPRESENTATION_RELATIONSHIP('SRR','None',#173,#12);
#12=ADVANCED_BREP_SHAPE_REPRESENTATION('',(#13),#162);
#13=MANIFOLD_SOLID_BREP('Solid2',#83);
#14=PLANE('',#113);
#15=PLANE('',#114);
#16=CYLINDRICAL_SURFACE('',#106,0.5);
#17=CYLINDRICAL_SURFACE('',#111,0.699999999999999);
#18=FACE_BOUND('',#31,.T.);
#19=FACE_BOUND('',#33,.T.);
#20=FACE_BOUND('',#35,.T.);
#21=FACE_BOUND('',#37,.T.);
#22=FACE_BOUND('',#39,.T.);
#23=FACE_BOUND('',#41,.T.);
#24=FACE_OUTER_BOUND('',#30,.T.);
#25=FACE_OUTER_BOUND('',#32,.T.);
#26=FACE_OUTER_BOUND('',#34,.T.);
#27=FACE_OUTER_BOUND('',#36,.T.);
#28=FACE_OUTER_BOUND('',#38,.T.);
#29=FACE_OUTER_BOUND('',#40,.T.);
#30=EDGE_LOOP('',(#60));
#31=EDGE_LOOP('',(#61));
#32=EDGE_LOOP('',(#62));
#33=EDGE_LOOP('',(#63));
#34=EDGE_LOOP('',(#64));
#35=EDGE_LOOP('',(#65));
#36=EDGE_LOOP('',(#66));
#37=EDGE_LOOP('',(#67));
#38=EDGE_LOOP('',(#68));
#39=EDGE_LOOP('',(#69));
#40=EDGE_LOOP('',(#70));
#41=EDGE_LOOP('',(#71));
#42=CIRCLE('',#104,0.5);
#43=CIRCLE('',#105,0.5);
#44=CIRCLE('',#107,0.5);
#45=CIRCLE('',#109,0.699999999999999);
#46=CIRCLE('',#110,0.699999999999999);
#47=CIRCLE('',#112,0.699999999999999);
#48=VERTEX_POINT('',#143);
#49=VERTEX_POINT('',#145);
#50=VERTEX_POINT('',#148);
#51=VERTEX_POINT('',#151);
#52=VERTEX_POINT('',#153);
#53=VERTEX_POINT('',#156);
#54=EDGE_CURVE('',#48,#48,#42,.T.);
#55=EDGE_CURVE('',#49,#49,#43,.T.);
#56=EDGE_CURVE('',#50,#50,#44,.T.);
#57=EDGE_CURVE('',#51,#51,#45,.T.);
#58=EDGE_CURVE('',#52,#52,#46,.T.);
#59=EDGE_CURVE('',#53,#53,#47,.T.);
#60=ORIENTED_EDGE('',*,*,#54,.F.);
#61=ORIENTED_EDGE('',*,*,#55,.T.);
#62=ORIENTED_EDGE('',*,*,#55,.F.);
#63=ORIENTED_EDGE('',*,*,#56,.F.);
#64=ORIENTED_EDGE('',*,*,#57,.T.);
#65=ORIENTED_EDGE('',*,*,#58,.F.);
#66=ORIENTED_EDGE('',*,*,#58,.T.);
#67=ORIENTED_EDGE('',*,*,#59,.T.);
#68=ORIENTED_EDGE('',*,*,#59,.F.);
#69=ORIENTED_EDGE('',*,*,#56,.T.);
#70=ORIENTED_EDGE('',*,*,#57,.F.);
#71=ORIENTED_EDGE('',*,*,#54,.T.);
#72=TOROIDAL_SURFACE('',#103,2.,0.5);
#73=TOROIDAL_SURFACE('',#108,2.,0.699999999999999);
#74=STYLED_ITEM('',(#184),#77);
#75=STYLED_ITEM('',(#184),#78);
#76=STYLED_ITEM('',(#183),#13);
#77=ADVANCED_FACE('',(#24,#18),#72,.F.);
#78=ADVANCED_FACE('',(#25,#19),#16,.F.);
#79=ADVANCED_FACE('',(#26,#20),#73,.T.);
#80=ADVANCED_FACE('',(#27,#21),#17,.T.);
#81=ADVANCED_FACE('',(#28,#22),#14,.F.);
#82=ADVANCED_FACE('',(#29,#23),#15,.T.);
#83=CLOSED_SHELL('',(#77,#78,#79,#80,#81,#82));
#84=DERIVED_UNIT_ELEMENT(#86,1.);
#85=DERIVED_UNIT_ELEMENT(#167,3.);
#86=(
MASS_UNIT()
NAMED_UNIT(*)
SI_UNIT($,.GRAM.)
);
#87=DERIVED_UNIT((#84,#85));
#88=MEASURE_REPRESENTATION_ITEM('density measure',
POSITIVE_RATIO_MEASURE(1.),#87);
#89=PROPERTY_DEFINITION_REPRESENTATION(#94,#91);
#90=PROPERTY_DEFINITION_REPRESENTATION(#95,#92);
#91=REPRESENTATION('material name',(#93),#162);
#92=REPRESENTATION('density',(#88),#162);
#93=DESCRIPTIVE_REPRESENTATION_ITEM('Generic','Generic');
#94=PROPERTY_DEFINITION('material property','material name',#175);
#95=PROPERTY_DEFINITION('material property','density of part',#175);
#96=DATE_TIME_ROLE('creation_date');
#97=APPLIED_DATE_AND_TIME_ASSIGNMENT(#98,#96,(#175));
#98=DATE_AND_TIME(#99,#100);
#99=CALENDAR_DATE(2016,17,10);
#100=LOCAL_TIME(13,47,39.,#101);
#101=COORDINATED_UNIVERSAL_TIME_OFFSET(0,0,.BEHIND.);
#102=AXIS2_PLACEMENT_3D('placement',#141,#115,#116);
#103=AXIS2_PLACEMENT_3D('',#142,#117,#118);
#104=AXIS2_PLACEMENT_3D('',#144,#119,#120);
#105=AXIS2_PLACEMENT_3D('',#146,#121,#122);
#106=AXIS2_PLACEMENT_3D('',#147,#123,#124);
#107=AXIS2_PLACEMENT_3D('',#149,#125,#126);
#108=AXIS2_PLACEMENT_3D('',#150,#127,#128);
#109=AXIS2_PLACEMENT_3D('',#152,#129,#130);
#110=AXIS2_PLACEMENT_3D('',#154,#131,#132);
#111=AXIS2_PLACEMENT_3D('',#155,#133,#134);
#112=AXIS2_PLACEMENT_3D('',#157,#135,#136);
#113=AXIS2_PLACEMENT_3D('',#158,#137,#138);
#114=AXIS2_PLACEMENT_3D('',#159,#139,#140);
#115=DIRECTION('axis',(0.,0.,1.));
#116=DIRECTION('refdir',(1.,0.,0.));
#117=DIRECTION('center_axis',(0.,0.,1.));
#118=DIRECTION('ref_axis',(1.,0.,0.));
#119=DIRECTION('center_axis',(-0.707106781186548,0.707106781186547,0.));
#120=DIRECTION('ref_axis',(-0.707106781186547,-0.707106781186548,0.));
#121=DIRECTION('center_axis',(0.,1.,0.));
#122=DIRECTION('ref_axis',(1.,0.,0.));
#123=DIRECTION('center_axis',(1.22464679914735E-16,-1.,0.));
#124=DIRECTION('ref_axis',(1.,1.22464679914735E-16,0.));
#125=DIRECTION('center_axis',(0.,-1.,0.));
#126=DIRECTION('ref_axis',(1.,0.,0.));
#127=DIRECTION('center_axis',(0.,0.,1.));
#128=DIRECTION('ref_axis',(1.,0.,0.));
#129=DIRECTION('center_axis',(-0.707106781186548,0.707106781186547,0.));
#130=DIRECTION('ref_axis',(0.707106781186547,0.707106781186548,0.));
#131=DIRECTION('center_axis',(0.,1.,0.));
#132=DIRECTION('ref_axis',(1.,0.,0.));
#133=DIRECTION('center_axis',(1.22464679914735E-16,-1.,0.));
#134=DIRECTION('ref_axis',(1.,1.22464679914735E-16,0.));
#135=DIRECTION('center_axis',(0.,-1.,0.));
#136=DIRECTION('ref_axis',(1.,0.,0.));
#137=DIRECTION('center_axis',(0.,-1.,0.));
#138=DIRECTION('ref_axis',(0.,0.,-1.));
#139=DIRECTION('center_axis',(0.707106781186548,-0.707106781186547,0.));
#140=DIRECTION('ref_axis',(0.,0.,-1.));
#141=CARTESIAN_POINT('',(0.,0.,0.));
#142=CARTESIAN_POINT('Origin',(2.,-0.0999999999999997,0.));
#143=CARTESIAN_POINT('',(0.232233047033632,-1.86776695296637,6.12323399573676E-17));
#144=CARTESIAN_POINT('Origin',(0.585786437626905,-1.5142135623731,0.));
#145=CARTESIAN_POINT('',(-0.5,-0.1,6.12323399573676E-17));
#146=CARTESIAN_POINT('Origin',(1.22464679914735E-17,-0.1,0.));
#147=CARTESIAN_POINT('Origin',(0.,0.,0.));
#148=CARTESIAN_POINT('',(-0.5,0.,6.12323399573676E-17));
#149=CARTESIAN_POINT('Origin',(0.,0.,0.));
#150=CARTESIAN_POINT('Origin',(2.,-0.0999999999999997,0.));
#151=CARTESIAN_POINT('',(0.0908116907963226,-2.00918830920368,8.57252759403147E-17));
#152=CARTESIAN_POINT('Origin',(0.585786437626905,-1.5142135623731,0.));
#153=CARTESIAN_POINT('',(-0.699999999999999,-0.1,8.57252759403147E-17));
#154=CARTESIAN_POINT('Origin',(1.22464679914735E-17,-0.1,0.));
#155=CARTESIAN_POINT('Origin',(0.,0.,0.));
#156=CARTESIAN_POINT('',(-0.699999999999999,0.,8.57252759403147E-17));
#157=CARTESIAN_POINT('Origin',(0.,0.,0.));
#158=CARTESIAN_POINT('Origin',(0.,0.,0.));
#159=CARTESIAN_POINT('Origin',(0.585786437626905,-1.5142135623731,0.));
#160=UNCERTAINTY_MEASURE_WITH_UNIT(LENGTH_MEASURE(0.000393700787401575),
#165,'DISTANCE_ACCURACY_VALUE',
'Maximum model space distance between geometric entities at asserted c
onnectivities');
#161=UNCERTAINTY_MEASURE_WITH_UNIT(LENGTH_MEASURE(0.000393700787401575),
#165,'DISTANCE_ACCURACY_VALUE',
'Maximum model space distance between geometric entities at asserted c
onnectivities');
#162=(
GEOMETRIC_REPRESENTATION_CONTEXT(3)
GLOBAL_UNCERTAINTY_ASSIGNED_CONTEXT((#160))
GLOBAL_UNIT_ASSIGNED_CONTEXT((#165,#170,#169))
REPRESENTATION_CONTEXT('','3D')
);
#163=(
GEOMETRIC_REPRESENTATION_CONTEXT(3)
GLOBAL_UNCERTAINTY_ASSIGNED_CONTEXT((#161))
GLOBAL_UNIT_ASSIGNED_CONTEXT((#165,#170,#169))
REPRESENTATION_CONTEXT('','3D')
);
#164=DIMENSIONAL_EXPONENTS(1.,0.,0.,0.,0.,0.,0.);
#165=(
CONVERSION_BASED_UNIT('inch',#168)
LENGTH_UNIT()
NAMED_UNIT(#164)
);
#166=(
LENGTH_UNIT()
NAMED_UNIT(*)
SI_UNIT(.MILLI.,.METRE.)
);
#167=(
LENGTH_UNIT()
NAMED_UNIT(*)
SI_UNIT(.CENTI.,.METRE.)
);
#168=LENGTH_MEASURE_WITH_UNIT(LENGTH_MEASURE(25.4),#166);
#169=(
NAMED_UNIT(*)
SI_UNIT($,.STERADIAN.)
SOLID_ANGLE_UNIT()
);
#170=(
NAMED_UNIT(*)
PLANE_ANGLE_UNIT()
SI_UNIT($,.RADIAN.)
);
#171=SHAPE_DEFINITION_REPRESENTATION(#172,#173);
#172=PRODUCT_DEFINITION_SHAPE('',$,#175);
#173=SHAPE_REPRESENTATION('',(#102),#162);
#174=PRODUCT_DEFINITION_CONTEXT('part definition',#179,'design');
#175=PRODUCT_DEFINITION('31SS3445-16-','31SS3445-16-',#176,#174);
#176=PRODUCT_DEFINITION_FORMATION('',$,#181);
#177=PRODUCT_RELATED_PRODUCT_CATEGORY('31SS3445-16-','31SS3445-16-',(#181));
#178=APPLICATION_PROTOCOL_DEFINITION('international standard',
'automotive_design',2009,#179);
#179=APPLICATION_CONTEXT(
'Core Data for Automotive Mechanical Design Process');
#180=PRODUCT_CONTEXT('part definition',#179,'mechanical');
#181=PRODUCT('31SS3445-16-','31SS3445-16-',$,(#180));
#182=PRESENTATION_STYLE_ASSIGNMENT((#185));
#183=PRESENTATION_STYLE_ASSIGNMENT((#186));
#184=PRESENTATION_STYLE_ASSIGNMENT((#187));
#185=SURFACE_STYLE_USAGE(.BOTH.,#188);
#186=SURFACE_STYLE_USAGE(.BOTH.,#189);
#187=SURFACE_STYLE_USAGE(.BOTH.,#190);
#188=SURFACE_SIDE_STYLE('',(#191));
#189=SURFACE_SIDE_STYLE('',(#192));
#190=SURFACE_SIDE_STYLE('',(#193));
#191=SURFACE_STYLE_FILL_AREA(#194);
#192=SURFACE_STYLE_FILL_AREA(#195);
#193=SURFACE_STYLE_FILL_AREA(#196);
#194=FILL_AREA_STYLE('',(#197));
#195=FILL_AREA_STYLE('',(#198));
#196=FILL_AREA_STYLE('',(#199));
#197=FILL_AREA_STYLE_COLOUR('',#200);
#198=FILL_AREA_STYLE_COLOUR('',#201);
#199=FILL_AREA_STYLE_COLOUR('',#202);
#200=COLOUR_RGB('',0.749019607843137,0.749019607843137,0.749019607843137);
#201=COLOUR_RGB('',0.87843137254902,0.874509803921569,0.858823529411765);
#202=COLOUR_RGB('',0.956862745098039,0.956862745098039,0.956862745098039);
ENDSEC;
END-ISO-10303-21;
