ISO-10303-21;
HEADER;
/* Generated by software containing ST-Developer
 * from STEP Tools, Inc. (www.steptools.com) 
 */

FILE_DESCRIPTION(
/* description */ (''),
/* implementation_level */ '2;1');

FILE_NAME(
/* name */ 'C:\\Users\\daud\\Desktop\\#27_1-1-2.stp',
/* time_stamp */ '2018-05-02T14:38:52+10:00',
/* author */ ('daud'),
/* organization */ (''),
/* preprocessor_version */ 'ST-DEVELOPER v16.13',
/* originating_system */ 'Autodesk Inventor 2018',
/* authorisation */ '');

FILE_SCHEMA (('AUTOMOTIVE_DESIGN { 1 0 10303 214 3 1 1 }'));
ENDSEC;

DATA;
#10=MECHANICAL_DESIGN_GEOMETRIC_PRESENTATION_REPRESENTATION('',(#13),#369);
#11=SHAPE_REPRESENTATION_RELATIONSHIP('SRR','None',#376,#12);
#12=ADVANCED_BREP_SHAPE_REPRESENTATION('',(#14),#368);
#13=STYLED_ITEM('',(#385),#14);
#14=MANIFOLD_SOLID_BREP('Solid1',#213);
#15=LINE('',#331,#33);
#16=LINE('',#333,#34);
#17=LINE('',#335,#35);
#18=LINE('',#336,#36);
#19=LINE('',#339,#37);
#20=LINE('',#341,#38);
#21=LINE('',#342,#39);
#22=LINE('',#345,#40);
#23=LINE('',#347,#41);
#24=LINE('',#348,#42);
#25=LINE('',#351,#43);
#26=LINE('',#353,#44);
#27=LINE('',#354,#45);
#28=LINE('',#357,#46);
#29=LINE('',#359,#47);
#30=LINE('',#360,#48);
#31=LINE('',#362,#49);
#32=LINE('',#363,#50);
#33=VECTOR('',#278,10.);
#34=VECTOR('',#279,10.);
#35=VECTOR('',#280,10.);
#36=VECTOR('',#281,10.);
#37=VECTOR('',#284,10.);
#38=VECTOR('',#285,10.);
#39=VECTOR('',#286,10.);
#40=VECTOR('',#289,10.);
#41=VECTOR('',#290,10.);
#42=VECTOR('',#291,10.);
#43=VECTOR('',#294,10.);
#44=VECTOR('',#295,10.);
#45=VECTOR('',#296,10.);
#46=VECTOR('',#299,10.);
#47=VECTOR('',#300,10.);
#48=VECTOR('',#301,10.);
#49=VECTOR('',#304,10.);
#50=VECTOR('',#305,10.);
#51=PLANE('',#239);
#52=PLANE('',#243);
#53=PLANE('',#244);
#54=PLANE('',#245);
#55=PLANE('',#246);
#56=PLANE('',#247);
#57=PLANE('',#248);
#58=PLANE('',#249);
#59=PLANE('',#250);
#60=PLANE('',#251);
#61=FACE_BOUND('',#82,.T.);
#62=FACE_BOUND('',#84,.T.);
#63=FACE_BOUND('',#86,.T.);
#64=FACE_BOUND('',#88,.T.);
#65=FACE_BOUND('',#90,.T.);
#66=FACE_BOUND('',#98,.T.);
#67=FACE_BOUND('',#100,.T.);
#68=FACE_OUTER_BOUND('',#81,.T.);
#69=FACE_OUTER_BOUND('',#83,.T.);
#70=FACE_OUTER_BOUND('',#85,.T.);
#71=FACE_OUTER_BOUND('',#87,.T.);
#72=FACE_OUTER_BOUND('',#89,.T.);
#73=FACE_OUTER_BOUND('',#91,.T.);
#74=FACE_OUTER_BOUND('',#92,.T.);
#75=FACE_OUTER_BOUND('',#93,.T.);
#76=FACE_OUTER_BOUND('',#94,.T.);
#77=FACE_OUTER_BOUND('',#95,.T.);
#78=FACE_OUTER_BOUND('',#96,.T.);
#79=FACE_OUTER_BOUND('',#97,.T.);
#80=FACE_OUTER_BOUND('',#99,.T.);
#81=EDGE_LOOP('',(#149));
#82=EDGE_LOOP('',(#150));
#83=EDGE_LOOP('',(#151));
#84=EDGE_LOOP('',(#152));
#85=EDGE_LOOP('',(#153));
#86=EDGE_LOOP('',(#154));
#87=EDGE_LOOP('',(#155));
#88=EDGE_LOOP('',(#156));
#89=EDGE_LOOP('',(#157));
#90=EDGE_LOOP('',(#158));
#91=EDGE_LOOP('',(#159,#160,#161,#162));
#92=EDGE_LOOP('',(#163,#164,#165,#166));
#93=EDGE_LOOP('',(#167,#168,#169,#170));
#94=EDGE_LOOP('',(#171,#172,#173,#174));
#95=EDGE_LOOP('',(#175,#176,#177,#178));
#96=EDGE_LOOP('',(#179,#180,#181,#182));
#97=EDGE_LOOP('',(#183,#184,#185,#186,#187,#188));
#98=EDGE_LOOP('',(#189));
#99=EDGE_LOOP('',(#190,#191,#192,#193,#194,#195));
#100=EDGE_LOOP('',(#196));
#101=CIRCLE('',#234,19.05);
#102=CIRCLE('',#235,19.05);
#103=CIRCLE('',#237,22.425);
#104=CIRCLE('',#238,22.425);
#105=CIRCLE('',#241,22.425);
#106=CIRCLE('',#242,22.425);
#107=VERTEX_POINT('',#312);
#108=VERTEX_POINT('',#314);
#109=VERTEX_POINT('',#317);
#110=VERTEX_POINT('',#319);
#111=VERTEX_POINT('',#323);
#112=VERTEX_POINT('',#325);
#113=VERTEX_POINT('',#329);
#114=VERTEX_POINT('',#330);
#115=VERTEX_POINT('',#332);
#116=VERTEX_POINT('',#334);
#117=VERTEX_POINT('',#338);
#118=VERTEX_POINT('',#340);
#119=VERTEX_POINT('',#344);
#120=VERTEX_POINT('',#346);
#121=VERTEX_POINT('',#350);
#122=VERTEX_POINT('',#352);
#123=VERTEX_POINT('',#356);
#124=VERTEX_POINT('',#358);
#125=EDGE_CURVE('',#107,#107,#101,.T.);
#126=EDGE_CURVE('',#108,#108,#102,.T.);
#127=EDGE_CURVE('',#109,#109,#103,.T.);
#128=EDGE_CURVE('',#110,#110,#104,.T.);
#129=EDGE_CURVE('',#111,#111,#105,.T.);
#130=EDGE_CURVE('',#112,#112,#106,.T.);
#131=EDGE_CURVE('',#113,#114,#15,.T.);
#132=EDGE_CURVE('',#115,#114,#16,.T.);
#133=EDGE_CURVE('',#116,#115,#17,.T.);
#134=EDGE_CURVE('',#116,#113,#18,.T.);
#135=EDGE_CURVE('',#114,#117,#19,.T.);
#136=EDGE_CURVE('',#118,#117,#20,.T.);
#137=EDGE_CURVE('',#115,#118,#21,.T.);
#138=EDGE_CURVE('',#117,#119,#22,.T.);
#139=EDGE_CURVE('',#120,#119,#23,.T.);
#140=EDGE_CURVE('',#118,#120,#24,.T.);
#141=EDGE_CURVE('',#119,#121,#25,.T.);
#142=EDGE_CURVE('',#122,#121,#26,.T.);
#143=EDGE_CURVE('',#120,#122,#27,.T.);
#144=EDGE_CURVE('',#121,#123,#28,.T.);
#145=EDGE_CURVE('',#124,#123,#29,.T.);
#146=EDGE_CURVE('',#122,#124,#30,.T.);
#147=EDGE_CURVE('',#123,#113,#31,.T.);
#148=EDGE_CURVE('',#124,#116,#32,.T.);
#149=ORIENTED_EDGE('',*,*,#125,.F.);
#150=ORIENTED_EDGE('',*,*,#126,.F.);
#151=ORIENTED_EDGE('',*,*,#127,.T.);
#152=ORIENTED_EDGE('',*,*,#128,.F.);
#153=ORIENTED_EDGE('',*,*,#127,.F.);
#154=ORIENTED_EDGE('',*,*,#126,.T.);
#155=ORIENTED_EDGE('',*,*,#129,.T.);
#156=ORIENTED_EDGE('',*,*,#130,.F.);
#157=ORIENTED_EDGE('',*,*,#129,.F.);
#158=ORIENTED_EDGE('',*,*,#125,.T.);
#159=ORIENTED_EDGE('',*,*,#131,.T.);
#160=ORIENTED_EDGE('',*,*,#132,.F.);
#161=ORIENTED_EDGE('',*,*,#133,.F.);
#162=ORIENTED_EDGE('',*,*,#134,.T.);
#163=ORIENTED_EDGE('',*,*,#135,.T.);
#164=ORIENTED_EDGE('',*,*,#136,.F.);
#165=ORIENTED_EDGE('',*,*,#137,.F.);
#166=ORIENTED_EDGE('',*,*,#132,.T.);
#167=ORIENTED_EDGE('',*,*,#138,.T.);
#168=ORIENTED_EDGE('',*,*,#139,.F.);
#169=ORIENTED_EDGE('',*,*,#140,.F.);
#170=ORIENTED_EDGE('',*,*,#136,.T.);
#171=ORIENTED_EDGE('',*,*,#141,.T.);
#172=ORIENTED_EDGE('',*,*,#142,.F.);
#173=ORIENTED_EDGE('',*,*,#143,.F.);
#174=ORIENTED_EDGE('',*,*,#139,.T.);
#175=ORIENTED_EDGE('',*,*,#144,.T.);
#176=ORIENTED_EDGE('',*,*,#145,.F.);
#177=ORIENTED_EDGE('',*,*,#146,.F.);
#178=ORIENTED_EDGE('',*,*,#142,.T.);
#179=ORIENTED_EDGE('',*,*,#147,.T.);
#180=ORIENTED_EDGE('',*,*,#134,.F.);
#181=ORIENTED_EDGE('',*,*,#148,.F.);
#182=ORIENTED_EDGE('',*,*,#145,.T.);
#183=ORIENTED_EDGE('',*,*,#131,.F.);
#184=ORIENTED_EDGE('',*,*,#147,.F.);
#185=ORIENTED_EDGE('',*,*,#144,.F.);
#186=ORIENTED_EDGE('',*,*,#141,.F.);
#187=ORIENTED_EDGE('',*,*,#138,.F.);
#188=ORIENTED_EDGE('',*,*,#135,.F.);
#189=ORIENTED_EDGE('',*,*,#128,.T.);
#190=ORIENTED_EDGE('',*,*,#148,.T.);
#191=ORIENTED_EDGE('',*,*,#133,.T.);
#192=ORIENTED_EDGE('',*,*,#137,.T.);
#193=ORIENTED_EDGE('',*,*,#140,.T.);
#194=ORIENTED_EDGE('',*,*,#143,.T.);
#195=ORIENTED_EDGE('',*,*,#146,.T.);
#196=ORIENTED_EDGE('',*,*,#130,.T.);
#197=CYLINDRICAL_SURFACE('',#233,19.05);
#198=CYLINDRICAL_SURFACE('',#236,22.425);
#199=CYLINDRICAL_SURFACE('',#240,22.425);
#200=ADVANCED_FACE('',(#68,#61),#197,.F.);
#201=ADVANCED_FACE('',(#69,#62),#198,.T.);
#202=ADVANCED_FACE('',(#70,#63),#51,.F.);
#203=ADVANCED_FACE('',(#71,#64),#199,.T.);
#204=ADVANCED_FACE('',(#72,#65),#52,.F.);
#205=ADVANCED_FACE('',(#73),#53,.T.);
#206=ADVANCED_FACE('',(#74),#54,.T.);
#207=ADVANCED_FACE('',(#75),#55,.T.);
#208=ADVANCED_FACE('',(#76),#56,.T.);
#209=ADVANCED_FACE('',(#77),#57,.T.);
#210=ADVANCED_FACE('',(#78),#58,.T.);
#211=ADVANCED_FACE('',(#79,#66),#59,.T.);
#212=ADVANCED_FACE('',(#80,#67),#60,.F.);
#213=CLOSED_SHELL('',(#200,#201,#202,#203,#204,#205,#206,#207,#208,#209,
#210,#211,#212));
#214=DERIVED_UNIT_ELEMENT(#216,1.);
#215=DERIVED_UNIT_ELEMENT(#371,3.);
#216=(
MASS_UNIT()
NAMED_UNIT(*)
SI_UNIT($,.GRAM.)
);
#217=DERIVED_UNIT((#214,#215));
#218=MEASURE_REPRESENTATION_ITEM('density measure',
POSITIVE_RATIO_MEASURE(1.),#217);
#219=PROPERTY_DEFINITION_REPRESENTATION(#224,#221);
#220=PROPERTY_DEFINITION_REPRESENTATION(#225,#222);
#221=REPRESENTATION('material name',(#223),#368);
#222=REPRESENTATION('density',(#218),#368);
#223=DESCRIPTIVE_REPRESENTATION_ITEM('Generic','Generic');
#224=PROPERTY_DEFINITION('material property','material name',#378);
#225=PROPERTY_DEFINITION('material property','density of part',#378);
#226=DATE_TIME_ROLE('creation_date');
#227=APPLIED_DATE_AND_TIME_ASSIGNMENT(#228,#226,(#378));
#228=DATE_AND_TIME(#229,#230);
#229=CALENDAR_DATE(2012,23,3);
#230=LOCAL_TIME(3,39,9.,#231);
#231=COORDINATED_UNIVERSAL_TIME_OFFSET(0,0,.BEHIND.);
#232=AXIS2_PLACEMENT_3D('placement',#310,#252,#253);
#233=AXIS2_PLACEMENT_3D('',#311,#254,#255);
#234=AXIS2_PLACEMENT_3D('',#313,#256,#257);
#235=AXIS2_PLACEMENT_3D('',#315,#258,#259);
#236=AXIS2_PLACEMENT_3D('',#316,#260,#261);
#237=AXIS2_PLACEMENT_3D('',#318,#262,#263);
#238=AXIS2_PLACEMENT_3D('',#320,#264,#265);
#239=AXIS2_PLACEMENT_3D('',#321,#266,#267);
#240=AXIS2_PLACEMENT_3D('',#322,#268,#269);
#241=AXIS2_PLACEMENT_3D('',#324,#270,#271);
#242=AXIS2_PLACEMENT_3D('',#326,#272,#273);
#243=AXIS2_PLACEMENT_3D('',#327,#274,#275);
#244=AXIS2_PLACEMENT_3D('',#328,#276,#277);
#245=AXIS2_PLACEMENT_3D('',#337,#282,#283);
#246=AXIS2_PLACEMENT_3D('',#343,#287,#288);
#247=AXIS2_PLACEMENT_3D('',#349,#292,#293);
#248=AXIS2_PLACEMENT_3D('',#355,#297,#298);
#249=AXIS2_PLACEMENT_3D('',#361,#302,#303);
#250=AXIS2_PLACEMENT_3D('',#364,#306,#307);
#251=AXIS2_PLACEMENT_3D('',#365,#308,#309);
#252=DIRECTION('axis',(0.,0.,1.));
#253=DIRECTION('refdir',(1.,0.,0.));
#254=DIRECTION('center_axis',(0.,0.,1.));
#255=DIRECTION('ref_axis',(1.,0.,0.));
#256=DIRECTION('center_axis',(0.,0.,1.));
#257=DIRECTION('ref_axis',(1.,0.,0.));
#258=DIRECTION('center_axis',(0.,0.,-1.));
#259=DIRECTION('ref_axis',(1.,0.,0.));
#260=DIRECTION('center_axis',(0.,0.,1.));
#261=DIRECTION('ref_axis',(-1.,0.,0.));
#262=DIRECTION('center_axis',(0.,0.,-1.));
#263=DIRECTION('ref_axis',(-1.,0.,0.));
#264=DIRECTION('center_axis',(0.,0.,-1.));
#265=DIRECTION('ref_axis',(-1.,0.,0.));
#266=DIRECTION('center_axis',(0.,0.,-1.));
#267=DIRECTION('ref_axis',(-1.,0.,0.));
#268=DIRECTION('center_axis',(0.,0.,-1.));
#269=DIRECTION('ref_axis',(1.,0.,0.));
#270=DIRECTION('center_axis',(0.,0.,1.));
#271=DIRECTION('ref_axis',(1.,0.,0.));
#272=DIRECTION('center_axis',(0.,0.,1.));
#273=DIRECTION('ref_axis',(1.,0.,0.));
#274=DIRECTION('center_axis',(0.,0.,1.));
#275=DIRECTION('ref_axis',(1.,0.,0.));
#276=DIRECTION('center_axis',(0.563986131355478,-0.825784259742629,0.));
#277=DIRECTION('ref_axis',(0.,0.,-1.));
#278=DIRECTION('',(-0.825784259742629,-0.563986131355478,0.));
#279=DIRECTION('',(0.,0.,1.));
#280=DIRECTION('',(-0.825784259742629,-0.563986131355478,0.));
#281=DIRECTION('',(0.,0.,1.));
#282=DIRECTION('center_axis',(-0.433157081304705,-0.901318447007266,0.));
#283=DIRECTION('ref_axis',(0.,0.,-1.));
#284=DIRECTION('',(-0.901318447007266,0.433157081304705,0.));
#285=DIRECTION('',(0.,0.,1.));
#286=DIRECTION('',(-0.901318447007266,0.433157081304705,0.));
#287=DIRECTION('center_axis',(-0.997143212660183,-0.075534187264637,0.));
#288=DIRECTION('ref_axis',(0.,0.,1.));
#289=DIRECTION('',(-0.075534187264637,0.997143212660183,0.));
#290=DIRECTION('',(0.,0.,1.));
#291=DIRECTION('',(-0.075534187264637,0.997143212660183,0.));
#292=DIRECTION('center_axis',(-0.563986131355478,0.825784259742629,0.));
#293=DIRECTION('ref_axis',(0.,0.,1.));
#294=DIRECTION('',(0.825784259742629,0.563986131355478,0.));
#295=DIRECTION('',(0.,0.,1.));
#296=DIRECTION('',(0.825784259742629,0.563986131355478,0.));
#297=DIRECTION('center_axis',(0.433157081304705,0.901318447007266,0.));
#298=DIRECTION('ref_axis',(0.,0.,1.));
#299=DIRECTION('',(0.901318447007266,-0.433157081304705,0.));
#300=DIRECTION('',(0.,0.,1.));
#301=DIRECTION('',(0.901318447007266,-0.433157081304705,0.));
#302=DIRECTION('center_axis',(0.997143212660183,0.0755341872646367,0.));
#303=DIRECTION('ref_axis',(0.,0.,-1.));
#304=DIRECTION('',(0.0755341872646367,-0.997143212660183,0.));
#305=DIRECTION('',(0.0755341872646367,-0.997143212660183,0.));
#306=DIRECTION('center_axis',(0.,0.,1.));
#307=DIRECTION('ref_axis',(1.,0.,0.));
#308=DIRECTION('center_axis',(0.,0.,1.));
#309=DIRECTION('ref_axis',(1.,0.,0.));
#310=CARTESIAN_POINT('',(0.,0.,0.));
#311=CARTESIAN_POINT('Origin',(0.,0.,-57.1620156135169));
#312=CARTESIAN_POINT('',(-19.05,-2.33287510403163E-15,-20.));
#313=CARTESIAN_POINT('Origin',(0.,0.,-20.));
#314=CARTESIAN_POINT('',(19.05,0.,30.));
#315=CARTESIAN_POINT('Origin',(0.,0.,30.));
#316=CARTESIAN_POINT('Origin',(0.,0.,10.));
#317=CARTESIAN_POINT('',(22.425,2.74627044708794E-15,30.));
#318=CARTESIAN_POINT('Origin',(0.,0.,30.));
#319=CARTESIAN_POINT('',(22.425,2.74627044708794E-15,10.));
#320=CARTESIAN_POINT('Origin',(0.,0.,10.));
#321=CARTESIAN_POINT('Origin',(0.,0.,30.));
#322=CARTESIAN_POINT('Origin',(0.,0.,0.));
#323=CARTESIAN_POINT('',(-22.425,2.74627044708794E-15,-20.));
#324=CARTESIAN_POINT('Origin',(0.,0.,-20.));
#325=CARTESIAN_POINT('',(-22.425,2.74627044708794E-15,0.));
#326=CARTESIAN_POINT('Origin',(0.,0.,0.));
#327=CARTESIAN_POINT('Origin',(0.,0.,-20.));
#328=CARTESIAN_POINT('Origin',(23.9373166082401,-11.5038344446625,0.));
#329=CARTESIAN_POINT('',(23.9373166082401,-11.5038344446625,10.));
#330=CARTESIAN_POINT('',(2.00604543411184,-26.4822415034984,10.));
#331=CARTESIAN_POINT('',(23.9373166082401,-11.5038344446625,10.));
#332=CARTESIAN_POINT('',(2.00604543411184,-26.4822415034984,0.));
#333=CARTESIAN_POINT('',(2.00604543411184,-26.4822415034984,0.));
#334=CARTESIAN_POINT('',(23.9373166082401,-11.5038344446625,0.));
#335=CARTESIAN_POINT('',(23.9373166082401,-11.5038344446625,0.));
#336=CARTESIAN_POINT('',(23.9373166082401,-11.5038344446625,0.));
#337=CARTESIAN_POINT('Origin',(2.00604543411184,-26.4822415034984,0.));
#338=CARTESIAN_POINT('',(-21.9312711741283,-14.9784070588358,10.));
#339=CARTESIAN_POINT('',(2.00604543411184,-26.4822415034984,10.));
#340=CARTESIAN_POINT('',(-21.9312711741283,-14.9784070588358,0.));
#341=CARTESIAN_POINT('',(-21.9312711741283,-14.9784070588358,0.));
#342=CARTESIAN_POINT('',(2.00604543411184,-26.4822415034984,0.));
#343=CARTESIAN_POINT('Origin',(-21.9312711741283,-14.9784070588358,0.));
#344=CARTESIAN_POINT('',(-23.9373166082401,11.5038344446625,10.));
#345=CARTESIAN_POINT('',(-21.9312711741283,-14.9784070588358,10.));
#346=CARTESIAN_POINT('',(-23.9373166082401,11.5038344446625,0.));
#347=CARTESIAN_POINT('',(-23.9373166082401,11.5038344446625,0.));
#348=CARTESIAN_POINT('',(-21.9312711741283,-14.9784070588358,0.));
#349=CARTESIAN_POINT('Origin',(-23.9373166082401,11.5038344446625,0.));
#350=CARTESIAN_POINT('',(-2.00604543411187,26.4822415034984,10.));
#351=CARTESIAN_POINT('',(-23.9373166082401,11.5038344446625,10.));
#352=CARTESIAN_POINT('',(-2.00604543411187,26.4822415034984,0.));
#353=CARTESIAN_POINT('',(-2.00604543411187,26.4822415034984,0.));
#354=CARTESIAN_POINT('',(-23.9373166082401,11.5038344446625,0.));
#355=CARTESIAN_POINT('Origin',(-2.00604543411187,26.4822415034984,0.));
#356=CARTESIAN_POINT('',(21.9312711741283,14.9784070588359,10.));
#357=CARTESIAN_POINT('',(-2.00604543411187,26.4822415034984,10.));
#358=CARTESIAN_POINT('',(21.9312711741283,14.9784070588359,0.));
#359=CARTESIAN_POINT('',(21.9312711741283,14.9784070588359,0.));
#360=CARTESIAN_POINT('',(-2.00604543411187,26.4822415034984,0.));
#361=CARTESIAN_POINT('Origin',(21.9312711741283,14.9784070588359,0.));
#362=CARTESIAN_POINT('',(21.9312711741283,14.9784070588359,10.));
#363=CARTESIAN_POINT('',(21.9312711741283,14.9784070588359,0.));
#364=CARTESIAN_POINT('Origin',(-9.43689570931383E-15,7.7715611723761E-15,
10.));
#365=CARTESIAN_POINT('Origin',(-9.15933995315754E-15,7.7715611723761E-15,
0.));
#366=UNCERTAINTY_MEASURE_WITH_UNIT(LENGTH_MEASURE(0.01),#370,
'DISTANCE_ACCURACY_VALUE',
'Maximum model space distance between geometric entities at asserted c
onnectivities');
#367=UNCERTAINTY_MEASURE_WITH_UNIT(LENGTH_MEASURE(0.01),#370,
'DISTANCE_ACCURACY_VALUE',
'Maximum model space distance between geometric entities at asserted c
onnectivities');
#368=(
GEOMETRIC_REPRESENTATION_CONTEXT(3)
GLOBAL_UNCERTAINTY_ASSIGNED_CONTEXT((#366))
GLOBAL_UNIT_ASSIGNED_CONTEXT((#370,#373,#372))
REPRESENTATION_CONTEXT('','3D')
);
#369=(
GEOMETRIC_REPRESENTATION_CONTEXT(3)
GLOBAL_UNCERTAINTY_ASSIGNED_CONTEXT((#367))
GLOBAL_UNIT_ASSIGNED_CONTEXT((#370,#373,#372))
REPRESENTATION_CONTEXT('','3D')
);
#370=(
LENGTH_UNIT()
NAMED_UNIT(*)
SI_UNIT(.MILLI.,.METRE.)
);
#371=(
LENGTH_UNIT()
NAMED_UNIT(*)
SI_UNIT(.CENTI.,.METRE.)
);
#372=(
NAMED_UNIT(*)
SI_UNIT($,.STERADIAN.)
SOLID_ANGLE_UNIT()
);
#373=(
NAMED_UNIT(*)
PLANE_ANGLE_UNIT()
SI_UNIT($,.RADIAN.)
);
#374=SHAPE_DEFINITION_REPRESENTATION(#375,#376);
#375=PRODUCT_DEFINITION_SHAPE('',$,#378);
#376=SHAPE_REPRESENTATION('',(#232),#368);
#377=PRODUCT_DEFINITION_CONTEXT('part definition',#382,'design');
#378=PRODUCT_DEFINITION('#27_1-1-2','#27_1-1-2',#379,#377);
#379=PRODUCT_DEFINITION_FORMATION('',$,#384);
#380=PRODUCT_RELATED_PRODUCT_CATEGORY('#27_1-1-2','#27_1-1-2',(#384));
#381=APPLICATION_PROTOCOL_DEFINITION('international standard',
'automotive_design',2009,#382);
#382=APPLICATION_CONTEXT(
'Core Data for Automotive Mechanical Design Process');
#383=PRODUCT_CONTEXT('part definition',#382,'mechanical');
#384=PRODUCT('#27_1-1-2','#27_1-1-2',$,(#383));
#385=PRESENTATION_STYLE_ASSIGNMENT((#386));
#386=SURFACE_STYLE_USAGE(.BOTH.,#387);
#387=SURFACE_SIDE_STYLE('',(#388));
#388=SURFACE_STYLE_FILL_AREA(#389);
#389=FILL_AREA_STYLE('',(#390));
#390=FILL_AREA_STYLE_COLOUR('',#391);
#391=COLOUR_RGB('',0.752941176470588,0.752941176470588,0.752941176470588);
ENDSEC;
END-ISO-10303-21;
