ISO-10303-21;
HEADER;
/* Generated by software containing ST-Developer
 * from STEP Tools, Inc. (www.steptools.com) 
 */

FILE_DESCRIPTION(
/* description */ ('M & F EXTRUDED ELBOW (1/4" BSPT)'),
/* implementation_level */ '2;1');

FILE_NAME(
/* name */ 'C:\\Users\\daud\\Desktop\\#25E-1-4.stp',
/* time_stamp */ '2018-05-02T14:31:55+10:00',
/* author */ ('daud'),
/* organization */ (''),
/* preprocessor_version */ 'ST-DEVELOPER v16.13',
/* originating_system */ 'Autodesk Inventor 2018',
/* authorisation */ '');

FILE_SCHEMA (('AUTOMOTIVE_DESIGN { 1 0 10303 214 3 1 1 }'));
ENDSEC;

DATA;
#10=MECHANICAL_DESIGN_GEOMETRIC_PRESENTATION_REPRESENTATION('',(#13),#530);
#11=SHAPE_REPRESENTATION_RELATIONSHIP('SRR','None',#537,#12);
#12=ADVANCED_BREP_SHAPE_REPRESENTATION('',(#14),#529);
#13=STYLED_ITEM('',(#546),#14);
#14=MANIFOLD_SOLID_BREP('Solid1',#300);
#15=LINE('',#471,#34);
#16=LINE('',#473,#35);
#17=LINE('',#475,#36);
#18=LINE('',#476,#37);
#19=LINE('',#488,#38);
#20=LINE('',#490,#39);
#21=LINE('',#492,#40);
#22=LINE('',#493,#41);
#23=LINE('',#506,#42);
#24=LINE('',#509,#43);
#25=LINE('',#511,#44);
#26=LINE('',#513,#45);
#27=LINE('',#514,#46);
#28=LINE('',#515,#47);
#29=LINE('',#517,#48);
#30=LINE('',#520,#49);
#31=LINE('',#521,#50);
#32=LINE('',#523,#51);
#33=LINE('',#525,#52);
#34=VECTOR('',#387,10.);
#35=VECTOR('',#388,10.);
#36=VECTOR('',#389,10.);
#37=VECTOR('',#390,10.);
#38=VECTOR('',#403,10.);
#39=VECTOR('',#404,10.);
#40=VECTOR('',#405,10.);
#41=VECTOR('',#406,10.);
#42=VECTOR('',#421,10.);
#43=VECTOR('',#424,10.);
#44=VECTOR('',#427,10.);
#45=VECTOR('',#428,10.);
#46=VECTOR('',#429,10.);
#47=VECTOR('',#430,10.);
#48=VECTOR('',#433,10.);
#49=VECTOR('',#436,10.);
#50=VECTOR('',#437,10.);
#51=VECTOR('',#440,10.);
#52=VECTOR('',#443,10.);
#53=TOROIDAL_SURFACE('',#332,7.75,1.);
#54=CYLINDRICAL_SURFACE('',#325,6.75);
#55=CYLINDRICAL_SURFACE('',#329,4.25);
#56=CYLINDRICAL_SURFACE('',#343,5.25);
#57=CYLINDRICAL_SURFACE('',#346,6.);
#58=PLANE('',#323);
#59=PLANE('',#334);
#60=PLANE('',#340);
#61=PLANE('',#345);
#62=PLANE('',#349);
#63=PLANE('',#350);
#64=PLANE('',#351);
#65=PLANE('',#352);
#66=PLANE('',#353);
#67=PLANE('',#354);
#68=FACE_BOUND('',#102,.T.);
#69=FACE_BOUND('',#104,.T.);
#70=FACE_BOUND('',#106,.T.);
#71=FACE_BOUND('',#108,.T.);
#72=FACE_BOUND('',#110,.T.);
#73=FACE_BOUND('',#113,.T.);
#74=FACE_BOUND('',#115,.T.);
#75=FACE_BOUND('',#117,.T.);
#76=FACE_BOUND('',#119,.T.);
#77=FACE_BOUND('',#121,.T.);
#78=FACE_BOUND('',#124,.T.);
#79=FACE_BOUND('',#126,.T.);
#80=FACE_OUTER_BOUND('',#101,.T.);
#81=FACE_OUTER_BOUND('',#103,.T.);
#82=FACE_OUTER_BOUND('',#105,.T.);
#83=FACE_OUTER_BOUND('',#107,.T.);
#84=FACE_OUTER_BOUND('',#109,.T.);
#85=FACE_OUTER_BOUND('',#111,.T.);
#86=FACE_OUTER_BOUND('',#112,.T.);
#87=FACE_OUTER_BOUND('',#114,.T.);
#88=FACE_OUTER_BOUND('',#116,.T.);
#89=FACE_OUTER_BOUND('',#118,.T.);
#90=FACE_OUTER_BOUND('',#120,.T.);
#91=FACE_OUTER_BOUND('',#122,.T.);
#92=FACE_OUTER_BOUND('',#123,.T.);
#93=FACE_OUTER_BOUND('',#125,.T.);
#94=FACE_OUTER_BOUND('',#127,.T.);
#95=FACE_OUTER_BOUND('',#128,.T.);
#96=FACE_OUTER_BOUND('',#129,.T.);
#97=FACE_OUTER_BOUND('',#130,.T.);
#98=FACE_OUTER_BOUND('',#131,.T.);
#99=FACE_OUTER_BOUND('',#132,.T.);
#100=FACE_OUTER_BOUND('',#133,.T.);
#101=EDGE_LOOP('',(#207));
#102=EDGE_LOOP('',(#208));
#103=EDGE_LOOP('',(#209));
#104=EDGE_LOOP('',(#210));
#105=EDGE_LOOP('',(#211));
#106=EDGE_LOOP('',(#212));
#107=EDGE_LOOP('',(#213));
#108=EDGE_LOOP('',(#214));
#109=EDGE_LOOP('',(#215));
#110=EDGE_LOOP('',(#216));
#111=EDGE_LOOP('',(#217));
#112=EDGE_LOOP('',(#218));
#113=EDGE_LOOP('',(#219));
#114=EDGE_LOOP('',(#220,#221,#222,#223));
#115=EDGE_LOOP('',(#224));
#116=EDGE_LOOP('',(#225));
#117=EDGE_LOOP('',(#226));
#118=EDGE_LOOP('',(#227));
#119=EDGE_LOOP('',(#228));
#120=EDGE_LOOP('',(#229,#230,#231,#232));
#121=EDGE_LOOP('',(#233));
#122=EDGE_LOOP('',(#234));
#123=EDGE_LOOP('',(#235));
#124=EDGE_LOOP('',(#236));
#125=EDGE_LOOP('',(#237));
#126=EDGE_LOOP('',(#238));
#127=EDGE_LOOP('',(#239,#240,#241,#242));
#128=EDGE_LOOP('',(#243,#244,#245,#246,#247,#248,#249));
#129=EDGE_LOOP('',(#250,#251,#252,#253));
#130=EDGE_LOOP('',(#254,#255,#256,#257));
#131=EDGE_LOOP('',(#258,#259,#260,#261));
#132=EDGE_LOOP('',(#262,#263,#264,#265));
#133=EDGE_LOOP('',(#266,#267,#268,#269,#270,#271,#272));
#134=CIRCLE('',#321,5.95);
#135=CIRCLE('',#322,6.75);
#136=CIRCLE('',#324,5.25);
#137=CIRCLE('',#326,6.75);
#138=CIRCLE('',#328,4.25);
#139=CIRCLE('',#330,4.25);
#140=CIRCLE('',#333,7.75);
#141=CIRCLE('',#336,5.68201294926372);
#142=CIRCLE('',#337,6.71324751658296);
#143=CIRCLE('',#339,5.2945);
#144=CIRCLE('',#342,5.25);
#145=CIRCLE('',#344,5.25);
#146=CIRCLE('',#347,6.);
#147=CIRCLE('',#348,6.);
#148=VERTEX_POINT('',#448);
#149=VERTEX_POINT('',#450);
#150=VERTEX_POINT('',#453);
#151=VERTEX_POINT('',#456);
#152=VERTEX_POINT('',#459);
#153=VERTEX_POINT('',#462);
#154=VERTEX_POINT('',#466);
#155=VERTEX_POINT('',#469);
#156=VERTEX_POINT('',#470);
#157=VERTEX_POINT('',#472);
#158=VERTEX_POINT('',#474);
#159=VERTEX_POINT('',#478);
#160=VERTEX_POINT('',#480);
#161=VERTEX_POINT('',#483);
#162=VERTEX_POINT('',#486);
#163=VERTEX_POINT('',#487);
#164=VERTEX_POINT('',#489);
#165=VERTEX_POINT('',#491);
#166=VERTEX_POINT('',#495);
#167=VERTEX_POINT('',#498);
#168=VERTEX_POINT('',#502);
#169=VERTEX_POINT('',#503);
#170=VERTEX_POINT('',#505);
#171=VERTEX_POINT('',#507);
#172=VERTEX_POINT('',#512);
#173=VERTEX_POINT('',#519);
#174=EDGE_CURVE('',#148,#148,#134,.T.);
#175=EDGE_CURVE('',#149,#149,#135,.T.);
#176=EDGE_CURVE('',#150,#150,#136,.T.);
#177=EDGE_CURVE('',#151,#151,#137,.T.);
#178=EDGE_CURVE('',#152,#152,#138,.T.);
#179=EDGE_CURVE('',#153,#153,#139,.T.);
#180=EDGE_CURVE('',#154,#154,#140,.T.);
#181=EDGE_CURVE('',#155,#156,#15,.T.);
#182=EDGE_CURVE('',#157,#156,#16,.T.);
#183=EDGE_CURVE('',#158,#157,#17,.T.);
#184=EDGE_CURVE('',#158,#155,#18,.T.);
#185=EDGE_CURVE('',#159,#159,#141,.T.);
#186=EDGE_CURVE('',#160,#160,#142,.T.);
#187=EDGE_CURVE('',#161,#161,#143,.T.);
#188=EDGE_CURVE('',#162,#163,#19,.T.);
#189=EDGE_CURVE('',#164,#163,#20,.T.);
#190=EDGE_CURVE('',#165,#164,#21,.T.);
#191=EDGE_CURVE('',#165,#162,#22,.T.);
#192=EDGE_CURVE('',#166,#166,#144,.T.);
#193=EDGE_CURVE('',#167,#167,#145,.T.);
#194=EDGE_CURVE('',#168,#169,#146,.T.);
#195=EDGE_CURVE('',#169,#170,#23,.T.);
#196=EDGE_CURVE('',#170,#171,#147,.T.);
#197=EDGE_CURVE('',#171,#168,#24,.T.);
#198=EDGE_CURVE('',#170,#158,#25,.T.);
#199=EDGE_CURVE('',#157,#172,#26,.T.);
#200=EDGE_CURVE('',#172,#165,#27,.T.);
#201=EDGE_CURVE('',#164,#171,#28,.T.);
#202=EDGE_CURVE('',#169,#155,#29,.T.);
#203=EDGE_CURVE('',#156,#173,#30,.T.);
#204=EDGE_CURVE('',#172,#173,#31,.T.);
#205=EDGE_CURVE('',#173,#162,#32,.T.);
#206=EDGE_CURVE('',#163,#168,#33,.T.);
#207=ORIENTED_EDGE('',*,*,#174,.T.);
#208=ORIENTED_EDGE('',*,*,#175,.T.);
#209=ORIENTED_EDGE('',*,*,#174,.F.);
#210=ORIENTED_EDGE('',*,*,#176,.F.);
#211=ORIENTED_EDGE('',*,*,#177,.F.);
#212=ORIENTED_EDGE('',*,*,#175,.F.);
#213=ORIENTED_EDGE('',*,*,#178,.T.);
#214=ORIENTED_EDGE('',*,*,#176,.T.);
#215=ORIENTED_EDGE('',*,*,#179,.F.);
#216=ORIENTED_EDGE('',*,*,#178,.F.);
#217=ORIENTED_EDGE('',*,*,#179,.T.);
#218=ORIENTED_EDGE('',*,*,#177,.T.);
#219=ORIENTED_EDGE('',*,*,#180,.T.);
#220=ORIENTED_EDGE('',*,*,#181,.T.);
#221=ORIENTED_EDGE('',*,*,#182,.F.);
#222=ORIENTED_EDGE('',*,*,#183,.F.);
#223=ORIENTED_EDGE('',*,*,#184,.T.);
#224=ORIENTED_EDGE('',*,*,#180,.F.);
#225=ORIENTED_EDGE('',*,*,#185,.T.);
#226=ORIENTED_EDGE('',*,*,#186,.T.);
#227=ORIENTED_EDGE('',*,*,#187,.F.);
#228=ORIENTED_EDGE('',*,*,#185,.F.);
#229=ORIENTED_EDGE('',*,*,#188,.T.);
#230=ORIENTED_EDGE('',*,*,#189,.F.);
#231=ORIENTED_EDGE('',*,*,#190,.F.);
#232=ORIENTED_EDGE('',*,*,#191,.T.);
#233=ORIENTED_EDGE('',*,*,#186,.F.);
#234=ORIENTED_EDGE('',*,*,#192,.T.);
#235=ORIENTED_EDGE('',*,*,#192,.F.);
#236=ORIENTED_EDGE('',*,*,#193,.F.);
#237=ORIENTED_EDGE('',*,*,#187,.T.);
#238=ORIENTED_EDGE('',*,*,#193,.T.);
#239=ORIENTED_EDGE('',*,*,#194,.T.);
#240=ORIENTED_EDGE('',*,*,#195,.T.);
#241=ORIENTED_EDGE('',*,*,#196,.T.);
#242=ORIENTED_EDGE('',*,*,#197,.T.);
#243=ORIENTED_EDGE('',*,*,#196,.F.);
#244=ORIENTED_EDGE('',*,*,#198,.T.);
#245=ORIENTED_EDGE('',*,*,#183,.T.);
#246=ORIENTED_EDGE('',*,*,#199,.T.);
#247=ORIENTED_EDGE('',*,*,#200,.T.);
#248=ORIENTED_EDGE('',*,*,#190,.T.);
#249=ORIENTED_EDGE('',*,*,#201,.T.);
#250=ORIENTED_EDGE('',*,*,#195,.F.);
#251=ORIENTED_EDGE('',*,*,#202,.T.);
#252=ORIENTED_EDGE('',*,*,#184,.F.);
#253=ORIENTED_EDGE('',*,*,#198,.F.);
#254=ORIENTED_EDGE('',*,*,#203,.T.);
#255=ORIENTED_EDGE('',*,*,#204,.F.);
#256=ORIENTED_EDGE('',*,*,#199,.F.);
#257=ORIENTED_EDGE('',*,*,#182,.T.);
#258=ORIENTED_EDGE('',*,*,#205,.T.);
#259=ORIENTED_EDGE('',*,*,#191,.F.);
#260=ORIENTED_EDGE('',*,*,#200,.F.);
#261=ORIENTED_EDGE('',*,*,#204,.T.);
#262=ORIENTED_EDGE('',*,*,#197,.F.);
#263=ORIENTED_EDGE('',*,*,#201,.F.);
#264=ORIENTED_EDGE('',*,*,#189,.T.);
#265=ORIENTED_EDGE('',*,*,#206,.T.);
#266=ORIENTED_EDGE('',*,*,#194,.F.);
#267=ORIENTED_EDGE('',*,*,#206,.F.);
#268=ORIENTED_EDGE('',*,*,#188,.F.);
#269=ORIENTED_EDGE('',*,*,#205,.F.);
#270=ORIENTED_EDGE('',*,*,#203,.F.);
#271=ORIENTED_EDGE('',*,*,#181,.F.);
#272=ORIENTED_EDGE('',*,*,#202,.F.);
#273=CONICAL_SURFACE('',#320,6.35,0.785398163397448);
#274=CONICAL_SURFACE('',#327,4.75,0.785398163397448);
#275=CONICAL_SURFACE('',#331,2.125,1.02974425867665);
#276=CONICAL_SURFACE('',#335,6.19763023292334,0.801017987538173);
#277=CONICAL_SURFACE('',#338,5.50387375829148,0.0312396482814465);
#278=CONICAL_SURFACE('',#341,2.625,1.02974425867665);
#279=ADVANCED_FACE('',(#80,#68),#273,.T.);
#280=ADVANCED_FACE('',(#81,#69),#58,.F.);
#281=ADVANCED_FACE('',(#82,#70),#54,.T.);
#282=ADVANCED_FACE('',(#83,#71),#274,.F.);
#283=ADVANCED_FACE('',(#84,#72),#55,.F.);
#284=ADVANCED_FACE('',(#85),#275,.F.);
#285=ADVANCED_FACE('',(#86,#73),#53,.F.);
#286=ADVANCED_FACE('',(#87,#74),#59,.T.);
#287=ADVANCED_FACE('',(#88,#75),#276,.F.);
#288=ADVANCED_FACE('',(#89,#76),#277,.F.);
#289=ADVANCED_FACE('',(#90,#77),#60,.T.);
#290=ADVANCED_FACE('',(#91),#278,.F.);
#291=ADVANCED_FACE('',(#92,#78),#56,.F.);
#292=ADVANCED_FACE('',(#93,#79),#61,.T.);
#293=ADVANCED_FACE('',(#94),#57,.T.);
#294=ADVANCED_FACE('',(#95),#62,.F.);
#295=ADVANCED_FACE('',(#96),#63,.T.);
#296=ADVANCED_FACE('',(#97),#64,.T.);
#297=ADVANCED_FACE('',(#98),#65,.T.);
#298=ADVANCED_FACE('',(#99),#66,.T.);
#299=ADVANCED_FACE('',(#100),#67,.T.);
#300=CLOSED_SHELL('',(#279,#280,#281,#282,#283,#284,#285,#286,#287,#288,
#289,#290,#291,#292,#293,#294,#295,#296,#297,#298,#299));
#301=DERIVED_UNIT_ELEMENT(#303,1.);
#302=DERIVED_UNIT_ELEMENT(#532,3.);
#303=(
MASS_UNIT()
NAMED_UNIT(*)
SI_UNIT($,.GRAM.)
);
#304=DERIVED_UNIT((#301,#302));
#305=MEASURE_REPRESENTATION_ITEM('density measure',
POSITIVE_RATIO_MEASURE(1.),#304);
#306=PROPERTY_DEFINITION_REPRESENTATION(#311,#308);
#307=PROPERTY_DEFINITION_REPRESENTATION(#312,#309);
#308=REPRESENTATION('material name',(#310),#529);
#309=REPRESENTATION('density',(#305),#529);
#310=DESCRIPTIVE_REPRESENTATION_ITEM('Generic','Generic');
#311=PROPERTY_DEFINITION('material property','material name',#539);
#312=PROPERTY_DEFINITION('material property','density of part',#539);
#313=DATE_TIME_ROLE('creation_date');
#314=APPLIED_DATE_AND_TIME_ASSIGNMENT(#315,#313,(#539));
#315=DATE_AND_TIME(#316,#317);
#316=CALENDAR_DATE(2011,23,2);
#317=LOCAL_TIME(20,57,31.,#318);
#318=COORDINATED_UNIVERSAL_TIME_OFFSET(0,0,.BEHIND.);
#319=AXIS2_PLACEMENT_3D('placement',#446,#355,#356);
#320=AXIS2_PLACEMENT_3D('',#447,#357,#358);
#321=AXIS2_PLACEMENT_3D('',#449,#359,#360);
#322=AXIS2_PLACEMENT_3D('',#451,#361,#362);
#323=AXIS2_PLACEMENT_3D('',#452,#363,#364);
#324=AXIS2_PLACEMENT_3D('',#454,#365,#366);
#325=AXIS2_PLACEMENT_3D('',#455,#367,#368);
#326=AXIS2_PLACEMENT_3D('',#457,#369,#370);
#327=AXIS2_PLACEMENT_3D('',#458,#371,#372);
#328=AXIS2_PLACEMENT_3D('',#460,#373,#374);
#329=AXIS2_PLACEMENT_3D('',#461,#375,#376);
#330=AXIS2_PLACEMENT_3D('',#463,#377,#378);
#331=AXIS2_PLACEMENT_3D('',#464,#379,#380);
#332=AXIS2_PLACEMENT_3D('',#465,#381,#382);
#333=AXIS2_PLACEMENT_3D('',#467,#383,#384);
#334=AXIS2_PLACEMENT_3D('',#468,#385,#386);
#335=AXIS2_PLACEMENT_3D('',#477,#391,#392);
#336=AXIS2_PLACEMENT_3D('',#479,#393,#394);
#337=AXIS2_PLACEMENT_3D('',#481,#395,#396);
#338=AXIS2_PLACEMENT_3D('',#482,#397,#398);
#339=AXIS2_PLACEMENT_3D('',#484,#399,#400);
#340=AXIS2_PLACEMENT_3D('',#485,#401,#402);
#341=AXIS2_PLACEMENT_3D('',#494,#407,#408);
#342=AXIS2_PLACEMENT_3D('',#496,#409,#410);
#343=AXIS2_PLACEMENT_3D('',#497,#411,#412);
#344=AXIS2_PLACEMENT_3D('',#499,#413,#414);
#345=AXIS2_PLACEMENT_3D('',#500,#415,#416);
#346=AXIS2_PLACEMENT_3D('',#501,#417,#418);
#347=AXIS2_PLACEMENT_3D('',#504,#419,#420);
#348=AXIS2_PLACEMENT_3D('',#508,#422,#423);
#349=AXIS2_PLACEMENT_3D('',#510,#425,#426);
#350=AXIS2_PLACEMENT_3D('',#516,#431,#432);
#351=AXIS2_PLACEMENT_3D('',#518,#434,#435);
#352=AXIS2_PLACEMENT_3D('',#522,#438,#439);
#353=AXIS2_PLACEMENT_3D('',#524,#441,#442);
#354=AXIS2_PLACEMENT_3D('',#526,#444,#445);
#355=DIRECTION('axis',(0.,0.,1.));
#356=DIRECTION('refdir',(1.,0.,0.));
#357=DIRECTION('center_axis',(0.,1.,0.));
#358=DIRECTION('ref_axis',(-1.,-7.72119582936563E-17,0.));
#359=DIRECTION('center_axis',(-6.93889390390723E-17,1.,0.));
#360=DIRECTION('ref_axis',(-1.,-6.93889390390723E-17,0.));
#361=DIRECTION('center_axis',(6.93889390390723E-17,-1.,0.));
#362=DIRECTION('ref_axis',(-1.,-8.41078048958452E-17,0.));
#363=DIRECTION('center_axis',(-6.93889390390723E-17,1.,0.));
#364=DIRECTION('ref_axis',(0.,0.,1.));
#365=DIRECTION('center_axis',(6.93889390390723E-17,-1.,0.));
#366=DIRECTION('ref_axis',(-1.,-6.93889390390723E-17,0.));
#367=DIRECTION('center_axis',(8.41078048958452E-17,-1.,0.));
#368=DIRECTION('ref_axis',(-1.,-8.41078048958452E-17,0.));
#369=DIRECTION('center_axis',(-6.93889390390723E-17,1.,0.));
#370=DIRECTION('ref_axis',(-1.,-6.16790569236198E-17,0.));
#371=DIRECTION('center_axis',(1.38777878078144E-16,-1.,0.));
#372=DIRECTION('ref_axis',(-1.,-6.93889390390723E-17,0.));
#373=DIRECTION('center_axis',(-6.93889390390723E-17,1.,0.));
#374=DIRECTION('ref_axis',(-1.,-6.93889390390723E-17,0.));
#375=DIRECTION('center_axis',(6.93889390390723E-17,-1.,0.));
#376=DIRECTION('ref_axis',(1.,6.93889390390723E-17,0.));
#377=DIRECTION('center_axis',(6.93889390390723E-17,-1.,0.));
#378=DIRECTION('ref_axis',(1.,6.93889390390723E-17,0.));
#379=DIRECTION('center_axis',(6.93889390390723E-17,-1.,0.));
#380=DIRECTION('ref_axis',(1.,6.93889390390723E-17,0.));
#381=DIRECTION('center_axis',(-6.93889390390723E-17,1.,0.));
#382=DIRECTION('ref_axis',(0.,0.,1.));
#383=DIRECTION('center_axis',(6.93889390390723E-17,-1.,0.));
#384=DIRECTION('ref_axis',(-1.,-6.93889390390723E-17,0.));
#385=DIRECTION('center_axis',(6.93889390390723E-17,-1.,0.));
#386=DIRECTION('ref_axis',(0.,0.,-1.));
#387=DIRECTION('',(-1.,-6.93889390390723E-17,0.));
#388=DIRECTION('',(0.,0.,1.));
#389=DIRECTION('',(-1.,-6.93889390390723E-17,0.));
#390=DIRECTION('',(0.,0.,1.));
#391=DIRECTION('center_axis',(-1.,2.77691246750083E-16,1.11076498700033E-15));
#392=DIRECTION('ref_axis',(0.,1.,0.));
#393=DIRECTION('center_axis',(1.,0.,0.));
#394=DIRECTION('ref_axis',(0.,1.,0.));
#395=DIRECTION('center_axis',(-1.,0.,0.));
#396=DIRECTION('ref_axis',(0.,1.,0.));
#397=DIRECTION('center_axis',(-1.,0.,0.));
#398=DIRECTION('ref_axis',(0.,-1.,0.));
#399=DIRECTION('center_axis',(-1.,0.,0.));
#400=DIRECTION('ref_axis',(0.,-1.,0.));
#401=DIRECTION('center_axis',(-1.,0.,0.));
#402=DIRECTION('ref_axis',(0.,0.,1.));
#403=DIRECTION('',(0.,1.,0.));
#404=DIRECTION('',(0.,0.,1.));
#405=DIRECTION('',(0.,1.,0.));
#406=DIRECTION('',(0.,0.,1.));
#407=DIRECTION('center_axis',(-1.,0.,0.));
#408=DIRECTION('ref_axis',(0.,-1.,0.));
#409=DIRECTION('center_axis',(-1.,0.,0.));
#410=DIRECTION('ref_axis',(0.,-1.,0.));
#411=DIRECTION('center_axis',(-1.,0.,0.));
#412=DIRECTION('ref_axis',(0.,-1.,0.));
#413=DIRECTION('center_axis',(1.,0.,0.));
#414=DIRECTION('ref_axis',(0.,-1.,0.));
#415=DIRECTION('center_axis',(-1.,0.,0.));
#416=DIRECTION('ref_axis',(0.,-1.,0.));
#417=DIRECTION('center_axis',(0.,0.,1.));
#418=DIRECTION('ref_axis',(0.707106781186548,0.707106781186548,0.));
#419=DIRECTION('center_axis',(0.,0.,-1.));
#420=DIRECTION('ref_axis',(0.707106781186548,0.707106781186548,0.));
#421=DIRECTION('',(0.,0.,-1.));
#422=DIRECTION('center_axis',(0.,0.,1.));
#423=DIRECTION('ref_axis',(0.707106781186548,0.707106781186548,0.));
#424=DIRECTION('',(0.,0.,1.));
#425=DIRECTION('center_axis',(0.,0.,1.));
#426=DIRECTION('ref_axis',(1.,0.,0.));
#427=DIRECTION('',(0.,-1.,0.));
#428=DIRECTION('',(-1.11022302462516E-15,1.,0.));
#429=DIRECTION('',(-1.,-5.55111512312579E-16,0.));
#430=DIRECTION('',(1.,0.,0.));
#431=DIRECTION('center_axis',(1.,0.,0.));
#432=DIRECTION('ref_axis',(0.,0.,-1.));
#433=DIRECTION('',(0.,-1.,0.));
#434=DIRECTION('center_axis',(-1.,-1.11022302462516E-15,0.));
#435=DIRECTION('ref_axis',(0.,0.,1.));
#436=DIRECTION('',(-1.11022302462516E-15,1.,0.));
#437=DIRECTION('',(0.,0.,1.));
#438=DIRECTION('center_axis',(5.55111512312579E-16,-1.,0.));
#439=DIRECTION('ref_axis',(0.,0.,-1.));
#440=DIRECTION('',(-1.,-5.55111512312579E-16,0.));
#441=DIRECTION('center_axis',(0.,1.,0.));
#442=DIRECTION('ref_axis',(0.,0.,1.));
#443=DIRECTION('',(1.,0.,0.));
#444=DIRECTION('center_axis',(0.,0.,1.));
#445=DIRECTION('ref_axis',(1.,0.,0.));
#446=CARTESIAN_POINT('',(0.,0.,0.));
#447=CARTESIAN_POINT('Origin',(0.834002152673775,-22.3,8.25));
#448=CARTESIAN_POINT('',(6.78400215267378,-22.7,8.25));
#449=CARTESIAN_POINT('Origin',(0.834002152673775,-22.7,8.25));
#450=CARTESIAN_POINT('',(7.58400215267378,-21.9,8.25));
#451=CARTESIAN_POINT('Origin',(0.834002152673775,-21.9,8.25));
#452=CARTESIAN_POINT('Origin',(0.834002152673775,-22.7,8.25));
#453=CARTESIAN_POINT('',(6.08400215267378,-22.7,8.25));
#454=CARTESIAN_POINT('Origin',(0.834002152673775,-22.7,8.25));
#455=CARTESIAN_POINT('Origin',(0.834002152673774,-9.5,8.25));
#456=CARTESIAN_POINT('',(7.58400215267377,-10.5,8.25));
#457=CARTESIAN_POINT('Origin',(0.834002152673774,-10.5,8.25));
#458=CARTESIAN_POINT('Origin',(0.834002152673775,-22.2,8.25));
#459=CARTESIAN_POINT('',(5.08400215267378,-21.7,8.25));
#460=CARTESIAN_POINT('Origin',(0.834002152673775,-21.7,8.25));
#461=CARTESIAN_POINT('Origin',(0.834002152673775,-15.7,8.25));
#462=CARTESIAN_POINT('',(5.08400215267377,-8.7,8.25));
#463=CARTESIAN_POINT('Origin',(0.834002152673774,-8.7,8.25));
#464=CARTESIAN_POINT('Origin',(0.834002152673774,-7.42317118456643,8.25));
#465=CARTESIAN_POINT('Origin',(0.834002152673774,-10.5,8.25));
#466=CARTESIAN_POINT('',(8.58400215267377,-9.5,8.25));
#467=CARTESIAN_POINT('Origin',(0.834002152673774,-9.5,8.25));
#468=CARTESIAN_POINT('Origin',(9.,-9.5,0.));
#469=CARTESIAN_POINT('',(9.,-9.5,16.5));
#470=CARTESIAN_POINT('',(-7.,-9.5,16.5));
#471=CARTESIAN_POINT('',(9.,-9.5,16.5));
#472=CARTESIAN_POINT('',(-7.,-9.5,0.));
#473=CARTESIAN_POINT('',(-7.,-9.5,0.));
#474=CARTESIAN_POINT('',(9.,-9.5,0.));
#475=CARTESIAN_POINT('',(9.,-9.5,0.));
#476=CARTESIAN_POINT('',(9.,-9.5,0.));
#477=CARTESIAN_POINT('Origin',(-8.50024395906493,1.,8.41));
#478=CARTESIAN_POINT('',(-8.00048791812986,-4.68201294926372,8.41));
#479=CARTESIAN_POINT('Origin',(-8.00048791812986,1.,8.41));
#480=CARTESIAN_POINT('',(-9.,-5.71324751658296,8.41));
#481=CARTESIAN_POINT('Origin',(-9.,1.,8.41));
#482=CARTESIAN_POINT('Origin',(-2.3,1.,8.41));
#483=CARTESIAN_POINT('',(4.4,-4.2945,8.41));
#484=CARTESIAN_POINT('Origin',(4.4,1.,8.41));
#485=CARTESIAN_POINT('Origin',(-9.,-7.5,0.));
#486=CARTESIAN_POINT('',(-9.,-7.5,16.5));
#487=CARTESIAN_POINT('',(-9.,9.5,16.5));
#488=CARTESIAN_POINT('',(-9.,-7.5,16.5));
#489=CARTESIAN_POINT('',(-9.,9.5,0.));
#490=CARTESIAN_POINT('',(-9.,9.5,0.));
#491=CARTESIAN_POINT('',(-9.,-7.5,0.));
#492=CARTESIAN_POINT('',(-9.,-7.5,0.));
#493=CARTESIAN_POINT('',(-9.,-7.5,0.));
#494=CARTESIAN_POINT('Origin',(6.57725912494735,1.,8.41));
#495=CARTESIAN_POINT('',(5.,-4.25,8.41));
#496=CARTESIAN_POINT('Origin',(5.,1.,8.41));
#497=CARTESIAN_POINT('Origin',(-2.,1.,8.41));
#498=CARTESIAN_POINT('',(4.4,6.25,8.41));
#499=CARTESIAN_POINT('Origin',(4.4,1.,8.41));
#500=CARTESIAN_POINT('Origin',(4.4,1.,8.41));
#501=CARTESIAN_POINT('Origin',(3.,3.5,0.));
#502=CARTESIAN_POINT('',(3.,9.5,16.5));
#503=CARTESIAN_POINT('',(9.,3.5,16.5));
#504=CARTESIAN_POINT('Origin',(3.,3.5,16.5));
#505=CARTESIAN_POINT('',(9.,3.5,0.));
#506=CARTESIAN_POINT('',(9.,3.5,0.));
#507=CARTESIAN_POINT('',(3.,9.5,0.));
#508=CARTESIAN_POINT('Origin',(3.,3.5,0.));
#509=CARTESIAN_POINT('',(3.,9.5,0.));
#510=CARTESIAN_POINT('Origin',(0.0540540540540538,0.0540540540540537,0.));
#511=CARTESIAN_POINT('',(9.,9.5,0.));
#512=CARTESIAN_POINT('',(-7.,-7.5,0.));
#513=CARTESIAN_POINT('',(-7.,-9.5,0.));
#514=CARTESIAN_POINT('',(-7.,-7.5,0.));
#515=CARTESIAN_POINT('',(-9.,9.5,0.));
#516=CARTESIAN_POINT('Origin',(9.,9.5,0.));
#517=CARTESIAN_POINT('',(9.,9.5,16.5));
#518=CARTESIAN_POINT('Origin',(-7.,-9.5,0.));
#519=CARTESIAN_POINT('',(-7.,-7.5,16.5));
#520=CARTESIAN_POINT('',(-7.,-9.5,16.5));
#521=CARTESIAN_POINT('',(-7.,-7.5,0.));
#522=CARTESIAN_POINT('Origin',(-7.,-7.5,0.));
#523=CARTESIAN_POINT('',(-7.,-7.5,16.5));
#524=CARTESIAN_POINT('Origin',(-9.,9.5,0.));
#525=CARTESIAN_POINT('',(-9.,9.5,16.5));
#526=CARTESIAN_POINT('Origin',(0.0540540540540542,0.0540540540540539,16.5));
#527=UNCERTAINTY_MEASURE_WITH_UNIT(LENGTH_MEASURE(0.01),#531,
'DISTANCE_ACCURACY_VALUE',
'Maximum model space distance between geometric entities at asserted c
onnectivities');
#528=UNCERTAINTY_MEASURE_WITH_UNIT(LENGTH_MEASURE(0.01),#531,
'DISTANCE_ACCURACY_VALUE',
'Maximum model space distance between geometric entities at asserted c
onnectivities');
#529=(
GEOMETRIC_REPRESENTATION_CONTEXT(3)
GLOBAL_UNCERTAINTY_ASSIGNED_CONTEXT((#527))
GLOBAL_UNIT_ASSIGNED_CONTEXT((#531,#534,#533))
REPRESENTATION_CONTEXT('','3D')
);
#530=(
GEOMETRIC_REPRESENTATION_CONTEXT(3)
GLOBAL_UNCERTAINTY_ASSIGNED_CONTEXT((#528))
GLOBAL_UNIT_ASSIGNED_CONTEXT((#531,#534,#533))
REPRESENTATION_CONTEXT('','3D')
);
#531=(
LENGTH_UNIT()
NAMED_UNIT(*)
SI_UNIT(.MILLI.,.METRE.)
);
#532=(
LENGTH_UNIT()
NAMED_UNIT(*)
SI_UNIT(.CENTI.,.METRE.)
);
#533=(
NAMED_UNIT(*)
SI_UNIT($,.STERADIAN.)
SOLID_ANGLE_UNIT()
);
#534=(
NAMED_UNIT(*)
PLANE_ANGLE_UNIT()
SI_UNIT($,.RADIAN.)
);
#535=SHAPE_DEFINITION_REPRESENTATION(#536,#537);
#536=PRODUCT_DEFINITION_SHAPE('',$,#539);
#537=SHAPE_REPRESENTATION('',(#319),#529);
#538=PRODUCT_DEFINITION_CONTEXT('part definition',#543,'design');
#539=PRODUCT_DEFINITION('#25E-1-4','#25E-1-4',#540,#538);
#540=PRODUCT_DEFINITION_FORMATION('',$,#545);
#541=PRODUCT_RELATED_PRODUCT_CATEGORY('#25E-1-4','#25E-1-4',(#545));
#542=APPLICATION_PROTOCOL_DEFINITION('international standard',
'automotive_design',2009,#543);
#543=APPLICATION_CONTEXT(
'Core Data for Automotive Mechanical Design Process');
#544=PRODUCT_CONTEXT('part definition',#543,'mechanical');
#545=PRODUCT('#25E-1-4','#25E-1-4','M & F EXTRUDED ELBOW (1/4" BSPT)',(#544));
#546=PRESENTATION_STYLE_ASSIGNMENT((#547));
#547=SURFACE_STYLE_USAGE(.BOTH.,#548);
#548=SURFACE_SIDE_STYLE('',(#549));
#549=SURFACE_STYLE_FILL_AREA(#550);
#550=FILL_AREA_STYLE('',(#551));
#551=FILL_AREA_STYLE_COLOUR('',#552);
#552=COLOUR_RGB('',0.705882352941177,0.419607843137255,0.254901960784314);
ENDSEC;
END-ISO-10303-21;
