ISO-10303-21;
HEADER;
/* Generated by software containing ST-Developer
 * from STEP Tools, Inc. (www.steptools.com) 
 */

FILE_DESCRIPTION(
/* description */ ('Reducing Bush 3/8" BSPT x 1/4" BSPT'),
/* implementation_level */ '2;1');

FILE_NAME(
/* name */ 'C:\\Users\\daud\\Desktop\\#24_3-8X1-4.stp',
/* time_stamp */ '2018-05-02T14:15:16+10:00',
/* author */ ('daud'),
/* organization */ (''),
/* preprocessor_version */ 'ST-DEVELOPER v16.13',
/* originating_system */ 'Autodesk Inventor 2018',
/* authorisation */ '');

FILE_SCHEMA (('AUTOMOTIVE_DESIGN { 1 0 10303 214 3 1 1 }'));
ENDSEC;

DATA;
#10=MECHANICAL_DESIGN_GEOMETRIC_PRESENTATION_REPRESENTATION('',(#13),#329);
#11=SHAPE_REPRESENTATION_RELATIONSHIP('SRR','None',#336,#12);
#12=ADVANCED_BREP_SHAPE_REPRESENTATION('',(#14),#328);
#13=STYLED_ITEM('',(#345),#14);
#14=MANIFOLD_SOLID_BREP('Solid1',#191);
#15=LINE('',#285,#33);
#16=LINE('',#287,#34);
#17=LINE('',#289,#35);
#18=LINE('',#290,#36);
#19=LINE('',#293,#37);
#20=LINE('',#295,#38);
#21=LINE('',#296,#39);
#22=LINE('',#299,#40);
#23=LINE('',#301,#41);
#24=LINE('',#302,#42);
#25=LINE('',#305,#43);
#26=LINE('',#307,#44);
#27=LINE('',#308,#45);
#28=LINE('',#311,#46);
#29=LINE('',#313,#47);
#30=LINE('',#314,#48);
#31=LINE('',#316,#49);
#32=LINE('',#317,#50);
#33=VECTOR('',#236,10.);
#34=VECTOR('',#237,10.);
#35=VECTOR('',#238,10.);
#36=VECTOR('',#239,10.);
#37=VECTOR('',#242,10.);
#38=VECTOR('',#243,10.);
#39=VECTOR('',#244,10.);
#40=VECTOR('',#247,10.);
#41=VECTOR('',#248,10.);
#42=VECTOR('',#249,10.);
#43=VECTOR('',#252,10.);
#44=VECTOR('',#253,10.);
#45=VECTOR('',#254,10.);
#46=VECTOR('',#257,10.);
#47=VECTOR('',#258,10.);
#48=VECTOR('',#259,10.);
#49=VECTOR('',#262,10.);
#50=VECTOR('',#263,10.);
#51=PLANE('',#214);
#52=PLANE('',#215);
#53=PLANE('',#216);
#54=PLANE('',#217);
#55=PLANE('',#218);
#56=PLANE('',#219);
#57=PLANE('',#223);
#58=PLANE('',#224);
#59=PLANE('',#225);
#60=FACE_BOUND('',#77,.T.);
#61=FACE_BOUND('',#85,.T.);
#62=FACE_BOUND('',#87,.T.);
#63=FACE_BOUND('',#89,.T.);
#64=FACE_BOUND('',#91,.T.);
#65=FACE_OUTER_BOUND('',#76,.T.);
#66=FACE_OUTER_BOUND('',#78,.T.);
#67=FACE_OUTER_BOUND('',#79,.T.);
#68=FACE_OUTER_BOUND('',#80,.T.);
#69=FACE_OUTER_BOUND('',#81,.T.);
#70=FACE_OUTER_BOUND('',#82,.T.);
#71=FACE_OUTER_BOUND('',#83,.T.);
#72=FACE_OUTER_BOUND('',#84,.T.);
#73=FACE_OUTER_BOUND('',#86,.T.);
#74=FACE_OUTER_BOUND('',#88,.T.);
#75=FACE_OUTER_BOUND('',#90,.T.);
#76=EDGE_LOOP('',(#134));
#77=EDGE_LOOP('',(#135));
#78=EDGE_LOOP('',(#136,#137,#138,#139));
#79=EDGE_LOOP('',(#140,#141,#142,#143));
#80=EDGE_LOOP('',(#144,#145,#146,#147));
#81=EDGE_LOOP('',(#148,#149,#150,#151));
#82=EDGE_LOOP('',(#152,#153,#154,#155));
#83=EDGE_LOOP('',(#156,#157,#158,#159));
#84=EDGE_LOOP('',(#160));
#85=EDGE_LOOP('',(#161));
#86=EDGE_LOOP('',(#162,#163,#164,#165,#166,#167));
#87=EDGE_LOOP('',(#168));
#88=EDGE_LOOP('',(#169,#170,#171,#172,#173,#174));
#89=EDGE_LOOP('',(#175));
#90=EDGE_LOOP('',(#176));
#91=EDGE_LOOP('',(#177));
#92=CIRCLE('',#212,5.7225);
#93=CIRCLE('',#213,5.7225);
#94=CIRCLE('',#221,8.4);
#95=CIRCLE('',#222,8.4);
#96=VERTEX_POINT('',#278);
#97=VERTEX_POINT('',#280);
#98=VERTEX_POINT('',#283);
#99=VERTEX_POINT('',#284);
#100=VERTEX_POINT('',#286);
#101=VERTEX_POINT('',#288);
#102=VERTEX_POINT('',#292);
#103=VERTEX_POINT('',#294);
#104=VERTEX_POINT('',#298);
#105=VERTEX_POINT('',#300);
#106=VERTEX_POINT('',#304);
#107=VERTEX_POINT('',#306);
#108=VERTEX_POINT('',#310);
#109=VERTEX_POINT('',#312);
#110=VERTEX_POINT('',#319);
#111=VERTEX_POINT('',#321);
#112=EDGE_CURVE('',#96,#96,#92,.T.);
#113=EDGE_CURVE('',#97,#97,#93,.T.);
#114=EDGE_CURVE('',#98,#99,#15,.T.);
#115=EDGE_CURVE('',#100,#98,#16,.T.);
#116=EDGE_CURVE('',#101,#100,#17,.T.);
#117=EDGE_CURVE('',#101,#99,#18,.T.);
#118=EDGE_CURVE('',#99,#102,#19,.T.);
#119=EDGE_CURVE('',#103,#101,#20,.T.);
#120=EDGE_CURVE('',#103,#102,#21,.T.);
#121=EDGE_CURVE('',#102,#104,#22,.T.);
#122=EDGE_CURVE('',#105,#103,#23,.T.);
#123=EDGE_CURVE('',#105,#104,#24,.T.);
#124=EDGE_CURVE('',#104,#106,#25,.T.);
#125=EDGE_CURVE('',#107,#105,#26,.T.);
#126=EDGE_CURVE('',#107,#106,#27,.T.);
#127=EDGE_CURVE('',#108,#98,#28,.T.);
#128=EDGE_CURVE('',#109,#108,#29,.T.);
#129=EDGE_CURVE('',#100,#109,#30,.T.);
#130=EDGE_CURVE('',#106,#108,#31,.T.);
#131=EDGE_CURVE('',#109,#107,#32,.T.);
#132=EDGE_CURVE('',#110,#110,#94,.T.);
#133=EDGE_CURVE('',#111,#111,#95,.T.);
#134=ORIENTED_EDGE('',*,*,#112,.F.);
#135=ORIENTED_EDGE('',*,*,#113,.F.);
#136=ORIENTED_EDGE('',*,*,#114,.F.);
#137=ORIENTED_EDGE('',*,*,#115,.F.);
#138=ORIENTED_EDGE('',*,*,#116,.F.);
#139=ORIENTED_EDGE('',*,*,#117,.T.);
#140=ORIENTED_EDGE('',*,*,#118,.F.);
#141=ORIENTED_EDGE('',*,*,#117,.F.);
#142=ORIENTED_EDGE('',*,*,#119,.F.);
#143=ORIENTED_EDGE('',*,*,#120,.T.);
#144=ORIENTED_EDGE('',*,*,#121,.F.);
#145=ORIENTED_EDGE('',*,*,#120,.F.);
#146=ORIENTED_EDGE('',*,*,#122,.F.);
#147=ORIENTED_EDGE('',*,*,#123,.T.);
#148=ORIENTED_EDGE('',*,*,#124,.F.);
#149=ORIENTED_EDGE('',*,*,#123,.F.);
#150=ORIENTED_EDGE('',*,*,#125,.F.);
#151=ORIENTED_EDGE('',*,*,#126,.T.);
#152=ORIENTED_EDGE('',*,*,#127,.F.);
#153=ORIENTED_EDGE('',*,*,#128,.F.);
#154=ORIENTED_EDGE('',*,*,#129,.F.);
#155=ORIENTED_EDGE('',*,*,#115,.T.);
#156=ORIENTED_EDGE('',*,*,#130,.F.);
#157=ORIENTED_EDGE('',*,*,#126,.F.);
#158=ORIENTED_EDGE('',*,*,#131,.F.);
#159=ORIENTED_EDGE('',*,*,#128,.T.);
#160=ORIENTED_EDGE('',*,*,#132,.F.);
#161=ORIENTED_EDGE('',*,*,#133,.T.);
#162=ORIENTED_EDGE('',*,*,#124,.T.);
#163=ORIENTED_EDGE('',*,*,#130,.T.);
#164=ORIENTED_EDGE('',*,*,#127,.T.);
#165=ORIENTED_EDGE('',*,*,#114,.T.);
#166=ORIENTED_EDGE('',*,*,#118,.T.);
#167=ORIENTED_EDGE('',*,*,#121,.T.);
#168=ORIENTED_EDGE('',*,*,#132,.T.);
#169=ORIENTED_EDGE('',*,*,#125,.T.);
#170=ORIENTED_EDGE('',*,*,#122,.T.);
#171=ORIENTED_EDGE('',*,*,#119,.T.);
#172=ORIENTED_EDGE('',*,*,#116,.T.);
#173=ORIENTED_EDGE('',*,*,#129,.T.);
#174=ORIENTED_EDGE('',*,*,#131,.T.);
#175=ORIENTED_EDGE('',*,*,#113,.T.);
#176=ORIENTED_EDGE('',*,*,#133,.F.);
#177=ORIENTED_EDGE('',*,*,#112,.T.);
#178=CYLINDRICAL_SURFACE('',#211,5.7225);
#179=CYLINDRICAL_SURFACE('',#220,8.4);
#180=ADVANCED_FACE('',(#65,#60),#178,.F.);
#181=ADVANCED_FACE('',(#66),#51,.T.);
#182=ADVANCED_FACE('',(#67),#52,.T.);
#183=ADVANCED_FACE('',(#68),#53,.T.);
#184=ADVANCED_FACE('',(#69),#54,.T.);
#185=ADVANCED_FACE('',(#70),#55,.T.);
#186=ADVANCED_FACE('',(#71),#56,.T.);
#187=ADVANCED_FACE('',(#72,#61),#179,.T.);
#188=ADVANCED_FACE('',(#73,#62),#57,.T.);
#189=ADVANCED_FACE('',(#74,#63),#58,.T.);
#190=ADVANCED_FACE('',(#75,#64),#59,.T.);
#191=CLOSED_SHELL('',(#180,#181,#182,#183,#184,#185,#186,#187,#188,#189,
#190));
#192=DERIVED_UNIT_ELEMENT(#194,1.);
#193=DERIVED_UNIT_ELEMENT(#331,3.);
#194=(
MASS_UNIT()
NAMED_UNIT(*)
SI_UNIT($,.GRAM.)
);
#195=DERIVED_UNIT((#192,#193));
#196=MEASURE_REPRESENTATION_ITEM('density measure',
POSITIVE_RATIO_MEASURE(8.47),#195);
#197=PROPERTY_DEFINITION_REPRESENTATION(#202,#199);
#198=PROPERTY_DEFINITION_REPRESENTATION(#203,#200);
#199=REPRESENTATION('material name',(#201),#328);
#200=REPRESENTATION('density',(#196),#328);
#201=DESCRIPTIVE_REPRESENTATION_ITEM('Brass, Soft Yellow',
'Brass, Soft Yellow');
#202=PROPERTY_DEFINITION('material property','material name',#338);
#203=PROPERTY_DEFINITION('material property','density of part',#338);
#204=DATE_TIME_ROLE('creation_date');
#205=APPLIED_DATE_AND_TIME_ASSIGNMENT(#206,#204,(#338));
#206=DATE_AND_TIME(#207,#208);
#207=CALENDAR_DATE(2011,4,7);
#208=LOCAL_TIME(23,41,35.,#209);
#209=COORDINATED_UNIVERSAL_TIME_OFFSET(0,0,.BEHIND.);
#210=AXIS2_PLACEMENT_3D('placement',#276,#226,#227);
#211=AXIS2_PLACEMENT_3D('',#277,#228,#229);
#212=AXIS2_PLACEMENT_3D('',#279,#230,#231);
#213=AXIS2_PLACEMENT_3D('',#281,#232,#233);
#214=AXIS2_PLACEMENT_3D('',#282,#234,#235);
#215=AXIS2_PLACEMENT_3D('',#291,#240,#241);
#216=AXIS2_PLACEMENT_3D('',#297,#245,#246);
#217=AXIS2_PLACEMENT_3D('',#303,#250,#251);
#218=AXIS2_PLACEMENT_3D('',#309,#255,#256);
#219=AXIS2_PLACEMENT_3D('',#315,#260,#261);
#220=AXIS2_PLACEMENT_3D('',#318,#264,#265);
#221=AXIS2_PLACEMENT_3D('',#320,#266,#267);
#222=AXIS2_PLACEMENT_3D('',#322,#268,#269);
#223=AXIS2_PLACEMENT_3D('',#323,#270,#271);
#224=AXIS2_PLACEMENT_3D('',#324,#272,#273);
#225=AXIS2_PLACEMENT_3D('',#325,#274,#275);
#226=DIRECTION('axis',(0.,0.,1.));
#227=DIRECTION('refdir',(1.,0.,0.));
#228=DIRECTION('center_axis',(-5.51091059616309E-16,1.,0.));
#229=DIRECTION('ref_axis',(1.,5.51091059616309E-16,2.19767164158122E-16));
#230=DIRECTION('center_axis',(-5.51091059616309E-16,1.,0.));
#231=DIRECTION('ref_axis',(1.,5.51091059616309E-16,2.19767164158122E-16));
#232=DIRECTION('center_axis',(5.51091059616309E-16,-1.,0.));
#233=DIRECTION('ref_axis',(1.,5.51091059616309E-16,2.19767164158122E-16));
#234=DIRECTION('center_axis',(0.5,2.75545529808154E-16,0.866025403784439));
#235=DIRECTION('ref_axis',(0.866025403784439,0.,-0.499999999999999));
#236=DIRECTION('',(-0.866025403784439,-4.77258857426208E-16,0.499999999999999));
#237=DIRECTION('',(5.51091059616309E-16,-1.,0.));
#238=DIRECTION('',(0.866025403784439,4.77258857426208E-16,-0.499999999999999));
#239=DIRECTION('',(5.51091059616309E-16,-1.,0.));
#240=DIRECTION('center_axis',(-0.500000000000001,-2.75545529808155E-16,
0.866025403784438));
#241=DIRECTION('ref_axis',(0.866025403784438,0.,0.500000000000001));
#242=DIRECTION('',(-0.866025403784438,-4.77258857426208E-16,-0.500000000000001));
#243=DIRECTION('',(0.866025403784438,4.77258857426208E-16,0.500000000000001));
#244=DIRECTION('',(5.51091059616309E-16,-1.,0.));
#245=DIRECTION('center_axis',(-1.,-5.51091059616309E-16,-2.19767164158122E-16));
#246=DIRECTION('ref_axis',(-2.19767164158122E-16,0.,1.));
#247=DIRECTION('',(2.19767164158122E-16,1.21111719364771E-31,-1.));
#248=DIRECTION('',(-2.19767164158122E-16,-1.21111719364771E-31,1.));
#249=DIRECTION('',(5.51091059616309E-16,-1.,0.));
#250=DIRECTION('center_axis',(-0.5,-2.75545529808154E-16,-0.866025403784439));
#251=DIRECTION('ref_axis',(-0.866025403784439,0.,0.5));
#252=DIRECTION('',(0.866025403784439,4.77258857426208E-16,-0.5));
#253=DIRECTION('',(-0.866025403784439,-4.77258857426208E-16,0.5));
#254=DIRECTION('',(5.51091059616309E-16,-1.,0.));
#255=DIRECTION('center_axis',(1.,5.51091059616309E-16,3.29650746237182E-16));
#256=DIRECTION('ref_axis',(3.29650746237182E-16,0.,-1.));
#257=DIRECTION('',(-3.29650746237182E-16,-1.81667579047156E-31,1.));
#258=DIRECTION('',(5.51091059616309E-16,-1.,0.));
#259=DIRECTION('',(3.29650746237182E-16,1.81667579047156E-31,-1.));
#260=DIRECTION('center_axis',(0.5,2.75545529808154E-16,-0.866025403784439));
#261=DIRECTION('ref_axis',(-0.866025403784439,0.,-0.5));
#262=DIRECTION('',(0.866025403784439,4.77258857426208E-16,0.5));
#263=DIRECTION('',(-0.866025403784439,-4.77258857426208E-16,-0.5));
#264=DIRECTION('center_axis',(-5.51091059616309E-16,1.,0.));
#265=DIRECTION('ref_axis',(-1.,-5.51091059616309E-16,0.));
#266=DIRECTION('center_axis',(-5.51091059616309E-16,1.,0.));
#267=DIRECTION('ref_axis',(-1.,-5.51091059616309E-16,0.));
#268=DIRECTION('center_axis',(-5.51091059616309E-16,1.,0.));
#269=DIRECTION('ref_axis',(-1.,-5.51091059616309E-16,0.));
#270=DIRECTION('center_axis',(5.51091059616309E-16,-1.,0.));
#271=DIRECTION('ref_axis',(0.,0.,-1.));
#272=DIRECTION('center_axis',(-5.51091059616309E-16,1.,0.));
#273=DIRECTION('ref_axis',(0.,0.,1.));
#274=DIRECTION('center_axis',(5.51091059616309E-16,-1.,0.));
#275=DIRECTION('ref_axis',(0.,0.,-1.));
#276=CARTESIAN_POINT('',(0.,0.,0.));
#277=CARTESIAN_POINT('Origin',(6.69272800586377E-15,-12.8050044939996,0.));
#278=CARTESIAN_POINT('',(-5.7225,-9.33172539404014E-16,-5.56813466082778E-16));
#279=CARTESIAN_POINT('Origin',(-3.63995489126079E-16,2.22044604925031E-15,
0.));
#280=CARTESIAN_POINT('',(5.72249999999999,21.5,1.25761759689485E-15));
#281=CARTESIAN_POINT('Origin',(-1.22124532708767E-14,21.5,0.));
#282=CARTESIAN_POINT('Origin',(-1.68444613925638E-14,21.5,10.1036297108185));
#283=CARTESIAN_POINT('',(8.74999999999999,14.,5.05181485540923));
#284=CARTESIAN_POINT('',(-1.27112784454415E-14,14.,10.1036297108185));
#285=CARTESIAN_POINT('',(-1.35625000000001,14.,10.8866610134069));
#286=CARTESIAN_POINT('',(8.74999999999998,21.5,5.05181485540923));
#287=CARTESIAN_POINT('',(8.74999999999998,21.5,5.05181485540923));
#288=CARTESIAN_POINT('',(-1.68444613925638E-14,21.5,10.1036297108185));
#289=CARTESIAN_POINT('',(0.218749999999985,21.5,9.97733433943322));
#290=CARTESIAN_POINT('',(-1.68444613925638E-14,21.5,10.1036297108185));
#291=CARTESIAN_POINT('Origin',(-8.75000000000001,21.5,5.05181485540922));
#292=CARTESIAN_POINT('',(-8.75000000000001,14.,5.05181485540922));
#293=CARTESIAN_POINT('',(-10.10625,14.,4.26878355282079));
#294=CARTESIAN_POINT('',(-8.75000000000001,21.5,5.05181485540922));
#295=CARTESIAN_POINT('',(-8.53125000000001,21.5,5.17811022679445));
#296=CARTESIAN_POINT('',(-8.75000000000001,21.5,5.05181485540922));
#297=CARTESIAN_POINT('Origin',(-8.75000000000001,21.5,-5.05181485540923));
#298=CARTESIAN_POINT('',(-8.75000000000001,14.,-5.05181485540923));
#299=CARTESIAN_POINT('',(-8.75000000000001,14.,-2.52590742770461));
#300=CARTESIAN_POINT('',(-8.75000000000001,21.5,-5.05181485540923));
#301=CARTESIAN_POINT('',(-8.75000000000001,21.5,-2.52590742770461));
#302=CARTESIAN_POINT('',(-8.75000000000001,21.5,-5.05181485540923));
#303=CARTESIAN_POINT('Origin',(-1.07382347571255E-14,21.5,-10.1036297108185));
#304=CARTESIAN_POINT('',(-6.60505181000317E-15,14.,-10.1036297108185));
#305=CARTESIAN_POINT('',(-5.73125000000001,14.,-6.79469098052541));
#306=CARTESIAN_POINT('',(-1.07382347571255E-14,21.5,-10.1036297108185));
#307=CARTESIAN_POINT('',(-4.15625000000001,21.5,-7.70401765449907));
#308=CARTESIAN_POINT('',(-1.07382347571255E-14,21.5,-10.1036297108185));
#309=CARTESIAN_POINT('Origin',(8.74999999999998,21.5,5.05181485540923));
#310=CARTESIAN_POINT('',(8.74999999999999,14.,-5.05181485540923));
#311=CARTESIAN_POINT('',(8.74999999999999,14.,2.52590742770462));
#312=CARTESIAN_POINT('',(8.74999999999999,21.5,-5.05181485540923));
#313=CARTESIAN_POINT('',(8.74999999999999,21.5,-5.05181485540923));
#314=CARTESIAN_POINT('',(8.74999999999999,21.5,2.52590742770462));
#315=CARTESIAN_POINT('Origin',(8.74999999999999,21.5,-5.05181485540923));
#316=CARTESIAN_POINT('',(3.01874999999999,14.,-8.36075358570227));
#317=CARTESIAN_POINT('',(4.59374999999999,21.5,-7.45142691172861));
#318=CARTESIAN_POINT('Origin',(-3.85763741731416E-15,7.,0.));
#319=CARTESIAN_POINT('',(-8.4,14.,0.));
#320=CARTESIAN_POINT('Origin',(-7.71527483462833E-15,14.,0.));
#321=CARTESIAN_POINT('',(-8.4,-1.54305496692566E-15,0.));
#322=CARTESIAN_POINT('Origin',(-1.70072759353855E-30,3.08610993385133E-15,
0.));
#323=CARTESIAN_POINT('Origin',(-9.45,14.,0.));
#324=CARTESIAN_POINT('Origin',(-5.25,21.5,0.));
#325=CARTESIAN_POINT('Origin',(-4.2,-7.71527483462832E-16,0.));
#326=UNCERTAINTY_MEASURE_WITH_UNIT(LENGTH_MEASURE(0.01),#330,
'DISTANCE_ACCURACY_VALUE',
'Maximum model space distance between geometric entities at asserted c
onnectivities');
#327=UNCERTAINTY_MEASURE_WITH_UNIT(LENGTH_MEASURE(0.01),#330,
'DISTANCE_ACCURACY_VALUE',
'Maximum model space distance between geometric entities at asserted c
onnectivities');
#328=(
GEOMETRIC_REPRESENTATION_CONTEXT(3)
GLOBAL_UNCERTAINTY_ASSIGNED_CONTEXT((#326))
GLOBAL_UNIT_ASSIGNED_CONTEXT((#330,#333,#332))
REPRESENTATION_CONTEXT('','3D')
);
#329=(
GEOMETRIC_REPRESENTATION_CONTEXT(3)
GLOBAL_UNCERTAINTY_ASSIGNED_CONTEXT((#327))
GLOBAL_UNIT_ASSIGNED_CONTEXT((#330,#333,#332))
REPRESENTATION_CONTEXT('','3D')
);
#330=(
LENGTH_UNIT()
NAMED_UNIT(*)
SI_UNIT(.MILLI.,.METRE.)
);
#331=(
LENGTH_UNIT()
NAMED_UNIT(*)
SI_UNIT(.CENTI.,.METRE.)
);
#332=(
NAMED_UNIT(*)
SI_UNIT($,.STERADIAN.)
SOLID_ANGLE_UNIT()
);
#333=(
NAMED_UNIT(*)
PLANE_ANGLE_UNIT()
SI_UNIT($,.RADIAN.)
);
#334=SHAPE_DEFINITION_REPRESENTATION(#335,#336);
#335=PRODUCT_DEFINITION_SHAPE('',$,#338);
#336=SHAPE_REPRESENTATION('',(#210),#328);
#337=PRODUCT_DEFINITION_CONTEXT('part definition',#342,'design');
#338=PRODUCT_DEFINITION('#24_3/8X1/4','#24_3-8X1-4',#339,#337);
#339=PRODUCT_DEFINITION_FORMATION('',$,#344);
#340=PRODUCT_RELATED_PRODUCT_CATEGORY('#24_3-8X1-4','#24_3-8X1-4',(#344));
#341=APPLICATION_PROTOCOL_DEFINITION('international standard',
'automotive_design',2009,#342);
#342=APPLICATION_CONTEXT(
'Core Data for Automotive Mechanical Design Process');
#343=PRODUCT_CONTEXT('part definition',#342,'mechanical');
#344=PRODUCT('#24_3/8X1/4','#24_3-8X1-4',
'Reducing Bush 3/8" BSPT x 1/4" BSPT',(#343));
#345=PRESENTATION_STYLE_ASSIGNMENT((#346));
#346=SURFACE_STYLE_USAGE(.BOTH.,#347);
#347=SURFACE_SIDE_STYLE('',(#348));
#348=SURFACE_STYLE_FILL_AREA(#349);
#349=FILL_AREA_STYLE('',(#350));
#350=FILL_AREA_STYLE_COLOUR('',#351);
#351=COLOUR_RGB('',0.780392156862745,0.568627450980392,0.113725490196078);
ENDSEC;
END-ISO-10303-21;
