ISO-10303-21;
HEADER;
/* Generated by software containing ST-Developer
 * from STEP Tools, Inc. (www.steptools.com) 
 */

FILE_DESCRIPTION(
/* description */ ('1/2 X1/4 REDUCER (BRASS)'),
/* implementation_level */ '2;1');

FILE_NAME(
/* name */ 'C:\\Users\\daud\\Desktop\\#24_1-2X1-4.stp',
/* time_stamp */ '2018-05-02T14:13:59+10:00',
/* author */ ('daud'),
/* organization */ (''),
/* preprocessor_version */ 'ST-DEVELOPER v16.13',
/* originating_system */ 'Autodesk Inventor 2018',
/* authorisation */ '');

FILE_SCHEMA (('AUTOMOTIVE_DESIGN { 1 0 10303 214 3 1 1 }'));
ENDSEC;

DATA;
#10=MECHANICAL_DESIGN_GEOMETRIC_PRESENTATION_REPRESENTATION('',(#13),#409);
#11=SHAPE_REPRESENTATION_RELATIONSHIP('SRR','None',#416,#12);
#12=ADVANCED_BREP_SHAPE_REPRESENTATION('',(#14),#408);
#13=STYLED_ITEM('',(#425),#14);
#14=MANIFOLD_SOLID_BREP('Solid1',#223);
#15=LINE('',#385,#21);
#16=LINE('',#386,#22);
#17=LINE('',#388,#23);
#18=LINE('',#390,#24);
#19=LINE('',#401,#25);
#20=LINE('',#403,#26);
#21=VECTOR('',#290,10.);
#22=VECTOR('',#291,10.);
#23=VECTOR('',#294,10.);
#24=VECTOR('',#297,10.);
#25=VECTOR('',#312,10.);
#26=VECTOR('',#315,10.);
#27=(
BOUNDED_CURVE()
B_SPLINE_CURVE(2,(#335,#336,#337),.UNSPECIFIED.,.F.,.F.)
B_SPLINE_CURVE_WITH_KNOTS((3,3),(0.430341822229695,1.91839897516225),
 .UNSPECIFIED.)
CURVE()
GEOMETRIC_REPRESENTATION_ITEM()
RATIONAL_B_SPLINE_CURVE((1.13039648472604,1.30526942949517,1.13039648472604))
REPRESENTATION_ITEM('')
);
#28=(
BOUNDED_CURVE()
B_SPLINE_CURVE(2,(#339,#340,#341),.UNSPECIFIED.,.F.,.F.)
B_SPLINE_CURVE_WITH_KNOTS((3,3),(0.430341822229695,1.91839897516225),
 .UNSPECIFIED.)
CURVE()
GEOMETRIC_REPRESENTATION_ITEM()
RATIONAL_B_SPLINE_CURVE((1.13039648472604,1.30526942949518,1.13039648472604))
REPRESENTATION_ITEM('')
);
#29=(
BOUNDED_CURVE()
B_SPLINE_CURVE(2,(#343,#344,#345),.UNSPECIFIED.,.F.,.F.)
B_SPLINE_CURVE_WITH_KNOTS((3,3),(0.430341822229694,1.91839897516225),
 .UNSPECIFIED.)
CURVE()
GEOMETRIC_REPRESENTATION_ITEM()
RATIONAL_B_SPLINE_CURVE((1.13039648472604,1.30526942949518,1.13039648472604))
REPRESENTATION_ITEM('')
);
#30=(
BOUNDED_CURVE()
B_SPLINE_CURVE(2,(#347,#348,#349),.UNSPECIFIED.,.F.,.F.)
B_SPLINE_CURVE_WITH_KNOTS((3,3),(0.430341822229694,1.91839897516225),
 .UNSPECIFIED.)
CURVE()
GEOMETRIC_REPRESENTATION_ITEM()
RATIONAL_B_SPLINE_CURVE((1.13039648472604,1.30526942949518,1.13039648472604))
REPRESENTATION_ITEM('')
);
#31=(
BOUNDED_CURVE()
B_SPLINE_CURVE(2,(#351,#352,#353),.UNSPECIFIED.,.F.,.F.)
B_SPLINE_CURVE_WITH_KNOTS((3,3),(0.430341822229693,1.91839897516225),
 .UNSPECIFIED.)
CURVE()
GEOMETRIC_REPRESENTATION_ITEM()
RATIONAL_B_SPLINE_CURVE((1.13039648472604,1.30526942949517,1.13039648472604))
REPRESENTATION_ITEM('')
);
#32=(
BOUNDED_CURVE()
B_SPLINE_CURVE(2,(#354,#355,#356),.UNSPECIFIED.,.F.,.F.)
B_SPLINE_CURVE_WITH_KNOTS((3,3),(0.430341822229693,1.91839897516225),
 .UNSPECIFIED.)
CURVE()
GEOMETRIC_REPRESENTATION_ITEM()
RATIONAL_B_SPLINE_CURVE((1.13039648472604,1.30526942949517,1.13039648472604))
REPRESENTATION_ITEM('')
);
#33=(
BOUNDED_CURVE()
B_SPLINE_CURVE(2,(#362,#363,#364),.UNSPECIFIED.,.F.,.F.)
B_SPLINE_CURVE_WITH_KNOTS((3,3),(0.430341822229693,1.91839897516225),
 .UNSPECIFIED.)
CURVE()
GEOMETRIC_REPRESENTATION_ITEM()
RATIONAL_B_SPLINE_CURVE((1.13039648472604,1.30526942949518,1.13039648472604))
REPRESENTATION_ITEM('')
);
#34=(
BOUNDED_CURVE()
B_SPLINE_CURVE(2,(#366,#367,#368),.UNSPECIFIED.,.F.,.F.)
B_SPLINE_CURVE_WITH_KNOTS((3,3),(0.430341822229693,1.91839897516225),
 .UNSPECIFIED.)
CURVE()
GEOMETRIC_REPRESENTATION_ITEM()
RATIONAL_B_SPLINE_CURVE((1.13039648472604,1.30526942949517,1.13039648472604))
REPRESENTATION_ITEM('')
);
#35=(
BOUNDED_CURVE()
B_SPLINE_CURVE(2,(#370,#371,#372),.UNSPECIFIED.,.F.,.F.)
B_SPLINE_CURVE_WITH_KNOTS((3,3),(0.430341822229695,1.91839897516225),
 .UNSPECIFIED.)
CURVE()
GEOMETRIC_REPRESENTATION_ITEM()
RATIONAL_B_SPLINE_CURVE((1.13039648472604,1.30526942949517,1.13039648472604))
REPRESENTATION_ITEM('')
);
#36=(
BOUNDED_CURVE()
B_SPLINE_CURVE(2,(#374,#375,#376),.UNSPECIFIED.,.F.,.F.)
B_SPLINE_CURVE_WITH_KNOTS((3,3),(0.430341822229695,1.91839897516225),
 .UNSPECIFIED.)
CURVE()
GEOMETRIC_REPRESENTATION_ITEM()
RATIONAL_B_SPLINE_CURVE((1.13039648472604,1.30526942949518,1.13039648472604))
REPRESENTATION_ITEM('')
);
#37=(
BOUNDED_CURVE()
B_SPLINE_CURVE(2,(#378,#379,#380),.UNSPECIFIED.,.F.,.F.)
B_SPLINE_CURVE_WITH_KNOTS((3,3),(0.430341822229694,1.91839897516225),
 .UNSPECIFIED.)
CURVE()
GEOMETRIC_REPRESENTATION_ITEM()
RATIONAL_B_SPLINE_CURVE((1.13039648472604,1.30526942949518,1.13039648472604))
REPRESENTATION_ITEM('')
);
#38=(
BOUNDED_CURVE()
B_SPLINE_CURVE(2,(#381,#382,#383),.UNSPECIFIED.,.F.,.F.)
B_SPLINE_CURVE_WITH_KNOTS((3,3),(0.430341822229693,1.91839897516225),
 .UNSPECIFIED.)
CURVE()
GEOMETRIC_REPRESENTATION_ITEM()
RATIONAL_B_SPLINE_CURVE((1.13039648472604,1.30526942949518,1.13039648472604))
REPRESENTATION_ITEM('')
);
#39=PLANE('',#248);
#40=PLANE('',#253);
#41=PLANE('',#254);
#42=PLANE('',#255);
#43=PLANE('',#261);
#44=PLANE('',#262);
#45=PLANE('',#263);
#46=PLANE('',#264);
#47=PLANE('',#265);
#48=CYLINDRICAL_SURFACE('',#246,6.35);
#49=CYLINDRICAL_SURFACE('',#259,10.75);
#50=FACE_BOUND('',#75,.T.);
#51=FACE_BOUND('',#77,.T.);
#52=FACE_BOUND('',#79,.T.);
#53=FACE_BOUND('',#81,.T.);
#54=FACE_BOUND('',#83,.T.);
#55=FACE_BOUND('',#88,.T.);
#56=FACE_BOUND('',#90,.T.);
#57=FACE_BOUND('',#92,.T.);
#58=FACE_BOUND('',#97,.T.);
#59=FACE_OUTER_BOUND('',#74,.T.);
#60=FACE_OUTER_BOUND('',#76,.T.);
#61=FACE_OUTER_BOUND('',#78,.T.);
#62=FACE_OUTER_BOUND('',#80,.T.);
#63=FACE_OUTER_BOUND('',#82,.T.);
#64=FACE_OUTER_BOUND('',#84,.T.);
#65=FACE_OUTER_BOUND('',#85,.T.);
#66=FACE_OUTER_BOUND('',#86,.T.);
#67=FACE_OUTER_BOUND('',#87,.T.);
#68=FACE_OUTER_BOUND('',#89,.T.);
#69=FACE_OUTER_BOUND('',#91,.T.);
#70=FACE_OUTER_BOUND('',#93,.T.);
#71=FACE_OUTER_BOUND('',#94,.T.);
#72=FACE_OUTER_BOUND('',#95,.T.);
#73=FACE_OUTER_BOUND('',#96,.T.);
#74=EDGE_LOOP('',(#152));
#75=EDGE_LOOP('',(#153));
#76=EDGE_LOOP('',(#154));
#77=EDGE_LOOP('',(#155));
#78=EDGE_LOOP('',(#156));
#79=EDGE_LOOP('',(#157));
#80=EDGE_LOOP('',(#158,#159,#160,#161,#162,#163));
#81=EDGE_LOOP('',(#164));
#82=EDGE_LOOP('',(#165,#166,#167,#168,#169,#170));
#83=EDGE_LOOP('',(#171));
#84=EDGE_LOOP('',(#172,#173,#174,#175));
#85=EDGE_LOOP('',(#176,#177,#178,#179));
#86=EDGE_LOOP('',(#180,#181,#182,#183));
#87=EDGE_LOOP('',(#184));
#88=EDGE_LOOP('',(#185));
#89=EDGE_LOOP('',(#186));
#90=EDGE_LOOP('',(#187));
#91=EDGE_LOOP('',(#188));
#92=EDGE_LOOP('',(#189));
#93=EDGE_LOOP('',(#190,#191,#192,#193));
#94=EDGE_LOOP('',(#194,#195,#196,#197));
#95=EDGE_LOOP('',(#198,#199,#200,#201));
#96=EDGE_LOOP('',(#202));
#97=EDGE_LOOP('',(#203));
#98=CIRCLE('',#244,6.35);
#99=CIRCLE('',#245,7.05);
#100=CIRCLE('',#247,6.35);
#101=CIRCLE('',#249,10.9);
#102=CIRCLE('',#251,10.9);
#103=CIRCLE('',#257,9.75);
#104=CIRCLE('',#258,10.75);
#105=CIRCLE('',#260,10.75);
#106=VERTEX_POINT('',#322);
#107=VERTEX_POINT('',#324);
#108=VERTEX_POINT('',#327);
#109=VERTEX_POINT('',#330);
#110=VERTEX_POINT('',#333);
#111=VERTEX_POINT('',#334);
#112=VERTEX_POINT('',#338);
#113=VERTEX_POINT('',#342);
#114=VERTEX_POINT('',#346);
#115=VERTEX_POINT('',#350);
#116=VERTEX_POINT('',#357);
#117=VERTEX_POINT('',#360);
#118=VERTEX_POINT('',#361);
#119=VERTEX_POINT('',#365);
#120=VERTEX_POINT('',#369);
#121=VERTEX_POINT('',#373);
#122=VERTEX_POINT('',#377);
#123=VERTEX_POINT('',#392);
#124=VERTEX_POINT('',#394);
#125=VERTEX_POINT('',#397);
#126=EDGE_CURVE('',#106,#106,#98,.T.);
#127=EDGE_CURVE('',#107,#107,#99,.T.);
#128=EDGE_CURVE('',#108,#108,#100,.T.);
#129=EDGE_CURVE('',#109,#109,#101,.T.);
#130=EDGE_CURVE('',#110,#111,#27,.T.);
#131=EDGE_CURVE('',#112,#110,#28,.T.);
#132=EDGE_CURVE('',#113,#112,#29,.T.);
#133=EDGE_CURVE('',#114,#113,#30,.T.);
#134=EDGE_CURVE('',#115,#114,#31,.T.);
#135=EDGE_CURVE('',#111,#115,#32,.T.);
#136=EDGE_CURVE('',#116,#116,#102,.T.);
#137=EDGE_CURVE('',#117,#118,#33,.T.);
#138=EDGE_CURVE('',#119,#117,#34,.T.);
#139=EDGE_CURVE('',#120,#119,#35,.T.);
#140=EDGE_CURVE('',#121,#120,#36,.T.);
#141=EDGE_CURVE('',#122,#121,#37,.T.);
#142=EDGE_CURVE('',#118,#122,#38,.T.);
#143=EDGE_CURVE('',#122,#112,#15,.T.);
#144=EDGE_CURVE('',#121,#113,#16,.T.);
#145=EDGE_CURVE('',#120,#114,#17,.T.);
#146=EDGE_CURVE('',#118,#110,#18,.T.);
#147=EDGE_CURVE('',#123,#123,#103,.T.);
#148=EDGE_CURVE('',#124,#124,#104,.T.);
#149=EDGE_CURVE('',#125,#125,#105,.T.);
#150=EDGE_CURVE('',#117,#111,#19,.T.);
#151=EDGE_CURVE('',#119,#115,#20,.T.);
#152=ORIENTED_EDGE('',*,*,#126,.T.);
#153=ORIENTED_EDGE('',*,*,#127,.T.);
#154=ORIENTED_EDGE('',*,*,#128,.F.);
#155=ORIENTED_EDGE('',*,*,#126,.F.);
#156=ORIENTED_EDGE('',*,*,#129,.T.);
#157=ORIENTED_EDGE('',*,*,#127,.F.);
#158=ORIENTED_EDGE('',*,*,#130,.F.);
#159=ORIENTED_EDGE('',*,*,#131,.F.);
#160=ORIENTED_EDGE('',*,*,#132,.F.);
#161=ORIENTED_EDGE('',*,*,#133,.F.);
#162=ORIENTED_EDGE('',*,*,#134,.F.);
#163=ORIENTED_EDGE('',*,*,#135,.F.);
#164=ORIENTED_EDGE('',*,*,#136,.F.);
#165=ORIENTED_EDGE('',*,*,#137,.F.);
#166=ORIENTED_EDGE('',*,*,#138,.F.);
#167=ORIENTED_EDGE('',*,*,#139,.F.);
#168=ORIENTED_EDGE('',*,*,#140,.F.);
#169=ORIENTED_EDGE('',*,*,#141,.F.);
#170=ORIENTED_EDGE('',*,*,#142,.F.);
#171=ORIENTED_EDGE('',*,*,#129,.F.);
#172=ORIENTED_EDGE('',*,*,#132,.T.);
#173=ORIENTED_EDGE('',*,*,#143,.F.);
#174=ORIENTED_EDGE('',*,*,#141,.T.);
#175=ORIENTED_EDGE('',*,*,#144,.T.);
#176=ORIENTED_EDGE('',*,*,#133,.T.);
#177=ORIENTED_EDGE('',*,*,#144,.F.);
#178=ORIENTED_EDGE('',*,*,#140,.T.);
#179=ORIENTED_EDGE('',*,*,#145,.T.);
#180=ORIENTED_EDGE('',*,*,#131,.T.);
#181=ORIENTED_EDGE('',*,*,#146,.F.);
#182=ORIENTED_EDGE('',*,*,#142,.T.);
#183=ORIENTED_EDGE('',*,*,#143,.T.);
#184=ORIENTED_EDGE('',*,*,#147,.T.);
#185=ORIENTED_EDGE('',*,*,#148,.T.);
#186=ORIENTED_EDGE('',*,*,#149,.F.);
#187=ORIENTED_EDGE('',*,*,#148,.F.);
#188=ORIENTED_EDGE('',*,*,#147,.F.);
#189=ORIENTED_EDGE('',*,*,#128,.T.);
#190=ORIENTED_EDGE('',*,*,#130,.T.);
#191=ORIENTED_EDGE('',*,*,#150,.F.);
#192=ORIENTED_EDGE('',*,*,#137,.T.);
#193=ORIENTED_EDGE('',*,*,#146,.T.);
#194=ORIENTED_EDGE('',*,*,#135,.T.);
#195=ORIENTED_EDGE('',*,*,#151,.F.);
#196=ORIENTED_EDGE('',*,*,#138,.T.);
#197=ORIENTED_EDGE('',*,*,#150,.T.);
#198=ORIENTED_EDGE('',*,*,#134,.T.);
#199=ORIENTED_EDGE('',*,*,#145,.F.);
#200=ORIENTED_EDGE('',*,*,#139,.T.);
#201=ORIENTED_EDGE('',*,*,#151,.T.);
#202=ORIENTED_EDGE('',*,*,#136,.T.);
#203=ORIENTED_EDGE('',*,*,#149,.T.);
#204=CONICAL_SURFACE('',#243,6.7,0.785398163397446);
#205=CONICAL_SURFACE('',#250,13.4,1.0471975511966);
#206=CONICAL_SURFACE('',#252,13.4,1.0471975511966);
#207=CONICAL_SURFACE('',#256,10.25,0.785398163397448);
#208=ADVANCED_FACE('',(#59,#50),#204,.F.);
#209=ADVANCED_FACE('',(#60,#51),#48,.F.);
#210=ADVANCED_FACE('',(#61,#52),#39,.T.);
#211=ADVANCED_FACE('',(#62,#53),#205,.T.);
#212=ADVANCED_FACE('',(#63,#54),#206,.T.);
#213=ADVANCED_FACE('',(#64),#40,.T.);
#214=ADVANCED_FACE('',(#65),#41,.T.);
#215=ADVANCED_FACE('',(#66),#42,.T.);
#216=ADVANCED_FACE('',(#67,#55),#207,.T.);
#217=ADVANCED_FACE('',(#68,#56),#49,.T.);
#218=ADVANCED_FACE('',(#69,#57),#43,.F.);
#219=ADVANCED_FACE('',(#70),#44,.T.);
#220=ADVANCED_FACE('',(#71),#45,.T.);
#221=ADVANCED_FACE('',(#72),#46,.T.);
#222=ADVANCED_FACE('',(#73,#58),#47,.F.);
#223=CLOSED_SHELL('',(#208,#209,#210,#211,#212,#213,#214,#215,#216,#217,
#218,#219,#220,#221,#222));
#224=DERIVED_UNIT_ELEMENT(#226,1.);
#225=DERIVED_UNIT_ELEMENT(#411,3.);
#226=(
MASS_UNIT()
NAMED_UNIT(*)
SI_UNIT($,.GRAM.)
);
#227=DERIVED_UNIT((#224,#225));
#228=MEASURE_REPRESENTATION_ITEM('density measure',
POSITIVE_RATIO_MEASURE(8.),#227);
#229=PROPERTY_DEFINITION_REPRESENTATION(#234,#231);
#230=PROPERTY_DEFINITION_REPRESENTATION(#235,#232);
#231=REPRESENTATION('material name',(#233),#408);
#232=REPRESENTATION('density',(#228),#408);
#233=DESCRIPTIVE_REPRESENTATION_ITEM('Stainless Steel',
'Stainless Steel');
#234=PROPERTY_DEFINITION('material property','material name',#418);
#235=PROPERTY_DEFINITION('material property','density of part',#418);
#236=DATE_TIME_ROLE('creation_date');
#237=APPLIED_DATE_AND_TIME_ASSIGNMENT(#238,#236,(#418));
#238=DATE_AND_TIME(#239,#240);
#239=CALENDAR_DATE(2010,5,11);
#240=LOCAL_TIME(0,42,22.,#241);
#241=COORDINATED_UNIVERSAL_TIME_OFFSET(0,0,.BEHIND.);
#242=AXIS2_PLACEMENT_3D('placement',#320,#266,#267);
#243=AXIS2_PLACEMENT_3D('',#321,#268,#269);
#244=AXIS2_PLACEMENT_3D('',#323,#270,#271);
#245=AXIS2_PLACEMENT_3D('',#325,#272,#273);
#246=AXIS2_PLACEMENT_3D('',#326,#274,#275);
#247=AXIS2_PLACEMENT_3D('',#328,#276,#277);
#248=AXIS2_PLACEMENT_3D('',#329,#278,#279);
#249=AXIS2_PLACEMENT_3D('',#331,#280,#281);
#250=AXIS2_PLACEMENT_3D('',#332,#282,#283);
#251=AXIS2_PLACEMENT_3D('',#358,#284,#285);
#252=AXIS2_PLACEMENT_3D('',#359,#286,#287);
#253=AXIS2_PLACEMENT_3D('',#384,#288,#289);
#254=AXIS2_PLACEMENT_3D('',#387,#292,#293);
#255=AXIS2_PLACEMENT_3D('',#389,#295,#296);
#256=AXIS2_PLACEMENT_3D('',#391,#298,#299);
#257=AXIS2_PLACEMENT_3D('',#393,#300,#301);
#258=AXIS2_PLACEMENT_3D('',#395,#302,#303);
#259=AXIS2_PLACEMENT_3D('',#396,#304,#305);
#260=AXIS2_PLACEMENT_3D('',#398,#306,#307);
#261=AXIS2_PLACEMENT_3D('',#399,#308,#309);
#262=AXIS2_PLACEMENT_3D('',#400,#310,#311);
#263=AXIS2_PLACEMENT_3D('',#402,#313,#314);
#264=AXIS2_PLACEMENT_3D('',#404,#316,#317);
#265=AXIS2_PLACEMENT_3D('',#405,#318,#319);
#266=DIRECTION('axis',(0.,0.,1.));
#267=DIRECTION('refdir',(1.,0.,0.));
#268=DIRECTION('center_axis',(0.,0.,1.));
#269=DIRECTION('ref_axis',(-1.,0.,0.));
#270=DIRECTION('center_axis',(0.,0.,-1.));
#271=DIRECTION('ref_axis',(-1.,0.,0.));
#272=DIRECTION('center_axis',(0.,0.,1.));
#273=DIRECTION('ref_axis',(-1.,0.,0.));
#274=DIRECTION('center_axis',(0.,0.,1.));
#275=DIRECTION('ref_axis',(1.,0.,0.));
#276=DIRECTION('center_axis',(0.,0.,1.));
#277=DIRECTION('ref_axis',(1.,0.,0.));
#278=DIRECTION('center_axis',(0.,0.,1.));
#279=DIRECTION('ref_axis',(1.,0.,0.));
#280=DIRECTION('center_axis',(0.,0.,1.));
#281=DIRECTION('ref_axis',(0.,1.,0.));
#282=DIRECTION('center_axis',(0.,0.,1.));
#283=DIRECTION('ref_axis',(0.,1.,0.));
#284=DIRECTION('center_axis',(0.,0.,-1.));
#285=DIRECTION('ref_axis',(0.,1.,0.));
#286=DIRECTION('center_axis',(0.,0.,-1.));
#287=DIRECTION('ref_axis',(0.,1.,0.));
#288=DIRECTION('center_axis',(0.866025403784439,-0.5,0.));
#289=DIRECTION('ref_axis',(0.,0.,-1.));
#290=DIRECTION('',(0.,0.,-1.));
#291=DIRECTION('',(0.,0.,-1.));
#292=DIRECTION('center_axis',(0.,-1.,0.));
#293=DIRECTION('ref_axis',(0.,0.,-1.));
#294=DIRECTION('',(0.,0.,-1.));
#295=DIRECTION('center_axis',(0.866025403784439,0.5,0.));
#296=DIRECTION('ref_axis',(0.,0.,-1.));
#297=DIRECTION('',(0.,0.,-1.));
#298=DIRECTION('center_axis',(0.,0.,1.));
#299=DIRECTION('ref_axis',(1.,0.,0.));
#300=DIRECTION('center_axis',(0.,0.,1.));
#301=DIRECTION('ref_axis',(1.,0.,0.));
#302=DIRECTION('center_axis',(0.,0.,-1.));
#303=DIRECTION('ref_axis',(1.,0.,0.));
#304=DIRECTION('center_axis',(0.,0.,-1.));
#305=DIRECTION('ref_axis',(1.,0.,0.));
#306=DIRECTION('center_axis',(0.,0.,1.));
#307=DIRECTION('ref_axis',(1.,0.,0.));
#308=DIRECTION('center_axis',(0.,0.,1.));
#309=DIRECTION('ref_axis',(1.,0.,0.));
#310=DIRECTION('center_axis',(-5.20892827011349E-16,1.,0.));
#311=DIRECTION('ref_axis',(0.,0.,1.));
#312=DIRECTION('',(0.,0.,-1.));
#313=DIRECTION('center_axis',(-0.866025403784439,0.5,0.));
#314=DIRECTION('ref_axis',(0.,0.,1.));
#315=DIRECTION('',(0.,0.,-1.));
#316=DIRECTION('center_axis',(-0.866025403784438,-0.5,0.));
#317=DIRECTION('ref_axis',(0.,0.,1.));
#318=DIRECTION('center_axis',(0.,0.,1.));
#319=DIRECTION('ref_axis',(1.,0.,0.));
#320=CARTESIAN_POINT('',(0.,0.,0.));
#321=CARTESIAN_POINT('Origin',(0.,0.,-0.350000000000001));
#322=CARTESIAN_POINT('',(6.35,-7.77650717458569E-16,-0.700000000000003));
#323=CARTESIAN_POINT('Origin',(0.,0.,-0.700000000000003));
#324=CARTESIAN_POINT('',(7.05,8.63375993398884E-16,0.));
#325=CARTESIAN_POINT('Origin',(0.,0.,0.));
#326=CARTESIAN_POINT('Origin',(0.,0.,-41.3989896054756));
#327=CARTESIAN_POINT('',(-6.35,-7.77650717458569E-16,-23.1));
#328=CARTESIAN_POINT('Origin',(0.,0.,-23.1));
#329=CARTESIAN_POINT('Origin',(-8.60422844084496E-15,3.05311331771918E-15,
0.));
#330=CARTESIAN_POINT('',(0.,10.9,0.));
#331=CARTESIAN_POINT('Origin',(0.,0.,0.));
#332=CARTESIAN_POINT('Origin',(0.,0.,-5.70662432702594));
#333=CARTESIAN_POINT('',(6.39415423127509,11.075,-6.05978460083359));
#334=CARTESIAN_POINT('',(-6.39415423127512,11.075,-6.05978460083359));
#335=CARTESIAN_POINT('Ctrl Pts',(6.39415423127509,11.075,-6.05978460083359));
#336=CARTESIAN_POINT('Ctrl Pts',(-1.77635683940025E-14,11.075,-7.90561793416692));
#337=CARTESIAN_POINT('Ctrl Pts',(-6.39415423127512,11.075,-6.05978460083359));
#338=CARTESIAN_POINT('',(12.7883084625502,1.28115708575235E-15,-6.05978460083359));
#339=CARTESIAN_POINT('Ctrl Pts',(12.7883084625502,1.28115708575235E-15,
-6.05978460083359));
#340=CARTESIAN_POINT('Ctrl Pts',(9.59123134691265,5.5375,-7.90561793416693));
#341=CARTESIAN_POINT('Ctrl Pts',(6.39415423127509,11.075,-6.05978460083359));
#342=CARTESIAN_POINT('',(6.3941542312751,-11.075,-6.05978460083359));
#343=CARTESIAN_POINT('Ctrl Pts',(6.3941542312751,-11.075,-6.05978460083359));
#344=CARTESIAN_POINT('Ctrl Pts',(9.59123134691265,-5.53749999999999,-7.90561793416693));
#345=CARTESIAN_POINT('Ctrl Pts',(12.7883084625502,1.28115708575235E-15,
-6.05978460083359));
#346=CARTESIAN_POINT('',(-6.39415423127511,-11.075,-6.05978460083359));
#347=CARTESIAN_POINT('Ctrl Pts',(-6.39415423127511,-11.075,-6.05978460083359));
#348=CARTESIAN_POINT('Ctrl Pts',(-7.7715611723761E-15,-11.075,-7.90561793416693));
#349=CARTESIAN_POINT('Ctrl Pts',(6.3941542312751,-11.075,-6.05978460083359));
#350=CARTESIAN_POINT('',(-12.7883084625502,-1.70591332565716E-15,-6.05978460083359));
#351=CARTESIAN_POINT('Ctrl Pts',(-12.7883084625502,-1.70591332565716E-15,
-6.05978460083359));
#352=CARTESIAN_POINT('Ctrl Pts',(-9.59123134691266,-5.5375,-7.90561793416692));
#353=CARTESIAN_POINT('Ctrl Pts',(-6.39415423127511,-11.075,-6.05978460083359));
#354=CARTESIAN_POINT('Ctrl Pts',(-6.39415423127512,11.075,-6.05978460083359));
#355=CARTESIAN_POINT('Ctrl Pts',(-9.59123134691267,5.5375,-7.90561793416692));
#356=CARTESIAN_POINT('Ctrl Pts',(-12.7883084625502,-1.70591332565716E-15,
-6.05978460083359));
#357=CARTESIAN_POINT('',(0.,10.9,-7.15));
#358=CARTESIAN_POINT('Origin',(0.,0.,-7.15));
#359=CARTESIAN_POINT('Origin',(0.,0.,-1.44337567297406));
#360=CARTESIAN_POINT('',(-6.39415423127512,11.075,-1.09021539916641));
#361=CARTESIAN_POINT('',(6.39415423127509,11.075,-1.09021539916641));
#362=CARTESIAN_POINT('Ctrl Pts',(-6.39415423127512,11.075,-1.09021539916641));
#363=CARTESIAN_POINT('Ctrl Pts',(-1.4432899320127E-14,11.075,0.755617934166919));
#364=CARTESIAN_POINT('Ctrl Pts',(6.39415423127509,11.075,-1.09021539916641));
#365=CARTESIAN_POINT('',(-12.7883084625502,-1.70591332565716E-15,-1.09021539916641));
#366=CARTESIAN_POINT('Ctrl Pts',(-12.7883084625502,-1.70591332565716E-15,
-1.09021539916641));
#367=CARTESIAN_POINT('Ctrl Pts',(-9.59123134691267,5.5375,0.755617934166916));
#368=CARTESIAN_POINT('Ctrl Pts',(-6.39415423127512,11.075,-1.09021539916641));
#369=CARTESIAN_POINT('',(-6.39415423127511,-11.075,-1.09021539916641));
#370=CARTESIAN_POINT('Ctrl Pts',(-6.39415423127511,-11.075,-1.09021539916641));
#371=CARTESIAN_POINT('Ctrl Pts',(-9.59123134691267,-5.5375,0.755617934166915));
#372=CARTESIAN_POINT('Ctrl Pts',(-12.7883084625502,-1.70591332565716E-15,
-1.09021539916641));
#373=CARTESIAN_POINT('',(6.3941542312751,-11.075,-1.09021539916641));
#374=CARTESIAN_POINT('Ctrl Pts',(6.3941542312751,-11.075,-1.09021539916641));
#375=CARTESIAN_POINT('Ctrl Pts',(-5.55111512312578E-15,-11.075,0.755617934166922));
#376=CARTESIAN_POINT('Ctrl Pts',(-6.39415423127511,-11.075,-1.09021539916641));
#377=CARTESIAN_POINT('',(12.7883084625502,1.28115708575235E-15,-1.0902153991664));
#378=CARTESIAN_POINT('Ctrl Pts',(12.7883084625502,1.28115708575235E-15,
-1.0902153991664));
#379=CARTESIAN_POINT('Ctrl Pts',(9.59123134691265,-5.5375,0.755617934166928));
#380=CARTESIAN_POINT('Ctrl Pts',(6.3941542312751,-11.075,-1.09021539916641));
#381=CARTESIAN_POINT('Ctrl Pts',(6.39415423127509,11.075,-1.09021539916641));
#382=CARTESIAN_POINT('Ctrl Pts',(9.59123134691265,5.5375,0.755617934166925));
#383=CARTESIAN_POINT('Ctrl Pts',(12.7883084625502,1.28115708575235E-15,
-1.0902153991664));
#384=CARTESIAN_POINT('Origin',(6.3941542312751,-11.075,0.));
#385=CARTESIAN_POINT('',(12.7883084625502,1.28115708575235E-15,0.));
#386=CARTESIAN_POINT('',(6.3941542312751,-11.075,0.));
#387=CARTESIAN_POINT('Origin',(-6.39415423127511,-11.075,0.));
#388=CARTESIAN_POINT('',(-6.39415423127511,-11.075,0.));
#389=CARTESIAN_POINT('Origin',(12.7883084625502,1.28115708575235E-15,0.));
#390=CARTESIAN_POINT('',(6.39415423127509,11.075,0.));
#391=CARTESIAN_POINT('Origin',(0.,0.,-22.6));
#392=CARTESIAN_POINT('',(-9.75,-1.19403062916867E-15,-23.1));
#393=CARTESIAN_POINT('Origin',(0.,0.,-23.1));
#394=CARTESIAN_POINT('',(-10.75,1.3164953090834E-15,-22.1));
#395=CARTESIAN_POINT('Origin',(0.,0.,-22.1));
#396=CARTESIAN_POINT('Origin',(0.,0.,-7.15));
#397=CARTESIAN_POINT('',(-10.75,1.3164953090834E-15,-7.15));
#398=CARTESIAN_POINT('Origin',(0.,0.,-7.15));
#399=CARTESIAN_POINT('Origin',(0.,0.,-23.1));
#400=CARTESIAN_POINT('Origin',(6.39415423127509,11.075,0.));
#401=CARTESIAN_POINT('',(-6.39415423127512,11.075,0.));
#402=CARTESIAN_POINT('Origin',(-6.39415423127512,11.075,0.));
#403=CARTESIAN_POINT('',(-12.7883084625502,-1.70591332565716E-15,0.));
#404=CARTESIAN_POINT('Origin',(-12.7883084625502,-1.70591332565716E-15,
0.));
#405=CARTESIAN_POINT('Origin',(-8.94907044091793E-15,2.4980018054066E-15,
-7.15));
#406=UNCERTAINTY_MEASURE_WITH_UNIT(LENGTH_MEASURE(0.01),#410,
'DISTANCE_ACCURACY_VALUE',
'Maximum model space distance between geometric entities at asserted c
onnectivities');
#407=UNCERTAINTY_MEASURE_WITH_UNIT(LENGTH_MEASURE(0.01),#410,
'DISTANCE_ACCURACY_VALUE',
'Maximum model space distance between geometric entities at asserted c
onnectivities');
#408=(
GEOMETRIC_REPRESENTATION_CONTEXT(3)
GLOBAL_UNCERTAINTY_ASSIGNED_CONTEXT((#406))
GLOBAL_UNIT_ASSIGNED_CONTEXT((#410,#413,#412))
REPRESENTATION_CONTEXT('','3D')
);
#409=(
GEOMETRIC_REPRESENTATION_CONTEXT(3)
GLOBAL_UNCERTAINTY_ASSIGNED_CONTEXT((#407))
GLOBAL_UNIT_ASSIGNED_CONTEXT((#410,#413,#412))
REPRESENTATION_CONTEXT('','3D')
);
#410=(
LENGTH_UNIT()
NAMED_UNIT(*)
SI_UNIT(.MILLI.,.METRE.)
);
#411=(
LENGTH_UNIT()
NAMED_UNIT(*)
SI_UNIT(.CENTI.,.METRE.)
);
#412=(
NAMED_UNIT(*)
SI_UNIT($,.STERADIAN.)
SOLID_ANGLE_UNIT()
);
#413=(
NAMED_UNIT(*)
PLANE_ANGLE_UNIT()
SI_UNIT($,.RADIAN.)
);
#414=SHAPE_DEFINITION_REPRESENTATION(#415,#416);
#415=PRODUCT_DEFINITION_SHAPE('',$,#418);
#416=SHAPE_REPRESENTATION('',(#242),#408);
#417=PRODUCT_DEFINITION_CONTEXT('part definition',#422,'design');
#418=PRODUCT_DEFINITION('#24_1/2X1/4','#24_1-2X1-4',#419,#417);
#419=PRODUCT_DEFINITION_FORMATION('',$,#424);
#420=PRODUCT_RELATED_PRODUCT_CATEGORY('#24_1-2X1-4','#24_1-2X1-4',(#424));
#421=APPLICATION_PROTOCOL_DEFINITION('international standard',
'automotive_design',2009,#422);
#422=APPLICATION_CONTEXT(
'Core Data for Automotive Mechanical Design Process');
#423=PRODUCT_CONTEXT('part definition',#422,'mechanical');
#424=PRODUCT('#24_1/2X1/4','#24_1-2X1-4','1/2 X1/4 REDUCER (BRASS)',(#423));
#425=PRESENTATION_STYLE_ASSIGNMENT((#426));
#426=SURFACE_STYLE_USAGE(.BOTH.,#427);
#427=SURFACE_SIDE_STYLE('',(#428));
#428=SURFACE_STYLE_FILL_AREA(#429);
#429=FILL_AREA_STYLE('',(#430));
#430=FILL_AREA_STYLE_COLOUR('',#431);
#431=COLOUR_RGB('',0.796078431372549,0.603921568627451,0.231372549019608);
ENDSEC;
END-ISO-10303-21;
