ISO-10303-21;
HEADER;
/* Generated by software containing ST-Developer
 * from STEP Tools, Inc. (www.steptools.com) 
 */

FILE_DESCRIPTION(
/* description */ (''),
/* implementation_level */ '2;1');

FILE_NAME(
/* name */ 'C:\\Users\\daud\\Desktop\\03AT-1606.stp',
/* time_stamp */ '2018-05-02T15:07:27+10:00',
/* author */ ('daud'),
/* organization */ (''),
/* preprocessor_version */ 'ST-DEVELOPER v16.13',
/* originating_system */ 'Autodesk Inventor 2018',
/* authorisation */ '');

FILE_SCHEMA (('AUTOMOTIVE_DESIGN { 1 0 10303 214 3 1 1 }'));
ENDSEC;

DATA;
#10=MECHANICAL_DESIGN_GEOMETRIC_PRESENTATION_REPRESENTATION('',(#13),#201);
#11=SHAPE_REPRESENTATION_RELATIONSHIP('SRR','None',#208,#12);
#12=ADVANCED_BREP_SHAPE_REPRESENTATION('',(#14),#200);
#13=STYLED_ITEM('',(#217),#14);
#14=MANIFOLD_SOLID_BREP('Solid1',#103);
#15=CYLINDRICAL_SURFACE('',#128,12.7);
#16=CYLINDRICAL_SURFACE('',#132,17.5);
#17=PLANE('',#126);
#18=PLANE('',#136);
#19=FACE_BOUND('',#36,.T.);
#20=FACE_BOUND('',#38,.T.);
#21=FACE_BOUND('',#40,.T.);
#22=FACE_BOUND('',#42,.T.);
#23=FACE_BOUND('',#44,.T.);
#24=FACE_BOUND('',#46,.T.);
#25=FACE_BOUND('',#48,.T.);
#26=FACE_BOUND('',#50,.T.);
#27=FACE_OUTER_BOUND('',#35,.T.);
#28=FACE_OUTER_BOUND('',#37,.T.);
#29=FACE_OUTER_BOUND('',#39,.T.);
#30=FACE_OUTER_BOUND('',#41,.T.);
#31=FACE_OUTER_BOUND('',#43,.T.);
#32=FACE_OUTER_BOUND('',#45,.T.);
#33=FACE_OUTER_BOUND('',#47,.T.);
#34=FACE_OUTER_BOUND('',#49,.T.);
#35=EDGE_LOOP('',(#75));
#36=EDGE_LOOP('',(#76));
#37=EDGE_LOOP('',(#77));
#38=EDGE_LOOP('',(#78));
#39=EDGE_LOOP('',(#79));
#40=EDGE_LOOP('',(#80));
#41=EDGE_LOOP('',(#81));
#42=EDGE_LOOP('',(#82));
#43=EDGE_LOOP('',(#83));
#44=EDGE_LOOP('',(#84));
#45=EDGE_LOOP('',(#85));
#46=EDGE_LOOP('',(#86));
#47=EDGE_LOOP('',(#87));
#48=EDGE_LOOP('',(#88));
#49=EDGE_LOOP('',(#89));
#50=EDGE_LOOP('',(#90));
#51=CIRCLE('',#124,12.7);
#52=CIRCLE('',#125,13.7);
#53=CIRCLE('',#127,16.5);
#54=CIRCLE('',#129,12.7);
#55=CIRCLE('',#131,17.5);
#56=CIRCLE('',#133,17.5);
#57=CIRCLE('',#135,13.7);
#58=CIRCLE('',#137,16.5);
#59=VERTEX_POINT('',#175);
#60=VERTEX_POINT('',#177);
#61=VERTEX_POINT('',#180);
#62=VERTEX_POINT('',#183);
#63=VERTEX_POINT('',#186);
#64=VERTEX_POINT('',#189);
#65=VERTEX_POINT('',#192);
#66=VERTEX_POINT('',#195);
#67=EDGE_CURVE('',#59,#59,#51,.T.);
#68=EDGE_CURVE('',#60,#60,#52,.T.);
#69=EDGE_CURVE('',#61,#61,#53,.T.);
#70=EDGE_CURVE('',#62,#62,#54,.T.);
#71=EDGE_CURVE('',#63,#63,#55,.T.);
#72=EDGE_CURVE('',#64,#64,#56,.T.);
#73=EDGE_CURVE('',#65,#65,#57,.T.);
#74=EDGE_CURVE('',#66,#66,#58,.T.);
#75=ORIENTED_EDGE('',*,*,#67,.T.);
#76=ORIENTED_EDGE('',*,*,#68,.T.);
#77=ORIENTED_EDGE('',*,*,#69,.F.);
#78=ORIENTED_EDGE('',*,*,#68,.F.);
#79=ORIENTED_EDGE('',*,*,#70,.F.);
#80=ORIENTED_EDGE('',*,*,#67,.F.);
#81=ORIENTED_EDGE('',*,*,#71,.T.);
#82=ORIENTED_EDGE('',*,*,#69,.T.);
#83=ORIENTED_EDGE('',*,*,#72,.F.);
#84=ORIENTED_EDGE('',*,*,#71,.F.);
#85=ORIENTED_EDGE('',*,*,#70,.T.);
#86=ORIENTED_EDGE('',*,*,#73,.T.);
#87=ORIENTED_EDGE('',*,*,#74,.F.);
#88=ORIENTED_EDGE('',*,*,#73,.F.);
#89=ORIENTED_EDGE('',*,*,#72,.T.);
#90=ORIENTED_EDGE('',*,*,#74,.T.);
#91=CONICAL_SURFACE('',#123,13.2,0.785398163397451);
#92=CONICAL_SURFACE('',#130,17.,0.785398163397451);
#93=CONICAL_SURFACE('',#134,13.2,0.785398163397449);
#94=CONICAL_SURFACE('',#138,17.,0.785398163397449);
#95=ADVANCED_FACE('',(#27,#19),#91,.F.);
#96=ADVANCED_FACE('',(#28,#20),#17,.T.);
#97=ADVANCED_FACE('',(#29,#21),#15,.F.);
#98=ADVANCED_FACE('',(#30,#22),#92,.T.);
#99=ADVANCED_FACE('',(#31,#23),#16,.T.);
#100=ADVANCED_FACE('',(#32,#24),#93,.F.);
#101=ADVANCED_FACE('',(#33,#25),#18,.F.);
#102=ADVANCED_FACE('',(#34,#26),#94,.T.);
#103=CLOSED_SHELL('',(#95,#96,#97,#98,#99,#100,#101,#102));
#104=DERIVED_UNIT_ELEMENT(#106,1.);
#105=DERIVED_UNIT_ELEMENT(#203,3.);
#106=(
MASS_UNIT()
NAMED_UNIT(*)
SI_UNIT($,.GRAM.)
);
#107=DERIVED_UNIT((#104,#105));
#108=MEASURE_REPRESENTATION_ITEM('density measure',
POSITIVE_RATIO_MEASURE(8.47),#107);
#109=PROPERTY_DEFINITION_REPRESENTATION(#114,#111);
#110=PROPERTY_DEFINITION_REPRESENTATION(#115,#112);
#111=REPRESENTATION('material name',(#113),#200);
#112=REPRESENTATION('density',(#108),#200);
#113=DESCRIPTIVE_REPRESENTATION_ITEM('Brass, Soft Yellow',
'Brass, Soft Yellow');
#114=PROPERTY_DEFINITION('material property','material name',#210);
#115=PROPERTY_DEFINITION('material property','density of part',#210);
#116=DATE_TIME_ROLE('creation_date');
#117=APPLIED_DATE_AND_TIME_ASSIGNMENT(#118,#116,(#210));
#118=DATE_AND_TIME(#119,#120);
#119=CALENDAR_DATE(2016,4,4);
#120=LOCAL_TIME(5,28,53.,#121);
#121=COORDINATED_UNIVERSAL_TIME_OFFSET(0,0,.BEHIND.);
#122=AXIS2_PLACEMENT_3D('placement',#173,#139,#140);
#123=AXIS2_PLACEMENT_3D('',#174,#141,#142);
#124=AXIS2_PLACEMENT_3D('',#176,#143,#144);
#125=AXIS2_PLACEMENT_3D('',#178,#145,#146);
#126=AXIS2_PLACEMENT_3D('',#179,#147,#148);
#127=AXIS2_PLACEMENT_3D('',#181,#149,#150);
#128=AXIS2_PLACEMENT_3D('',#182,#151,#152);
#129=AXIS2_PLACEMENT_3D('',#184,#153,#154);
#130=AXIS2_PLACEMENT_3D('',#185,#155,#156);
#131=AXIS2_PLACEMENT_3D('',#187,#157,#158);
#132=AXIS2_PLACEMENT_3D('',#188,#159,#160);
#133=AXIS2_PLACEMENT_3D('',#190,#161,#162);
#134=AXIS2_PLACEMENT_3D('',#191,#163,#164);
#135=AXIS2_PLACEMENT_3D('',#193,#165,#166);
#136=AXIS2_PLACEMENT_3D('',#194,#167,#168);
#137=AXIS2_PLACEMENT_3D('',#196,#169,#170);
#138=AXIS2_PLACEMENT_3D('',#197,#171,#172);
#139=DIRECTION('axis',(0.,0.,1.));
#140=DIRECTION('refdir',(1.,0.,0.));
#141=DIRECTION('center_axis',(0.,1.,0.));
#142=DIRECTION('ref_axis',(1.,0.,0.));
#143=DIRECTION('center_axis',(0.,-1.,0.));
#144=DIRECTION('ref_axis',(1.,0.,0.));
#145=DIRECTION('center_axis',(0.,1.,0.));
#146=DIRECTION('ref_axis',(1.,0.,0.));
#147=DIRECTION('center_axis',(0.,1.,0.));
#148=DIRECTION('ref_axis',(0.,0.,1.));
#149=DIRECTION('center_axis',(0.,-1.,0.));
#150=DIRECTION('ref_axis',(1.,0.,0.));
#151=DIRECTION('center_axis',(0.,1.,0.));
#152=DIRECTION('ref_axis',(1.,0.,0.));
#153=DIRECTION('center_axis',(0.,1.,0.));
#154=DIRECTION('ref_axis',(1.,0.,0.));
#155=DIRECTION('center_axis',(0.,-1.,0.));
#156=DIRECTION('ref_axis',(1.,0.,0.));
#157=DIRECTION('center_axis',(0.,1.,0.));
#158=DIRECTION('ref_axis',(1.,0.,0.));
#159=DIRECTION('center_axis',(0.,1.,0.));
#160=DIRECTION('ref_axis',(1.,0.,0.));
#161=DIRECTION('center_axis',(0.,-1.,0.));
#162=DIRECTION('ref_axis',(1.,0.,0.));
#163=DIRECTION('center_axis',(0.,-1.,0.));
#164=DIRECTION('ref_axis',(1.,0.,0.));
#165=DIRECTION('center_axis',(0.,-1.,0.));
#166=DIRECTION('ref_axis',(1.,0.,0.));
#167=DIRECTION('center_axis',(0.,1.,0.));
#168=DIRECTION('ref_axis',(0.,0.,1.));
#169=DIRECTION('center_axis',(0.,1.,0.));
#170=DIRECTION('ref_axis',(1.,0.,0.));
#171=DIRECTION('center_axis',(0.,1.,0.));
#172=DIRECTION('ref_axis',(1.,0.,0.));
#173=CARTESIAN_POINT('',(0.,0.,0.));
#174=CARTESIAN_POINT('Origin',(0.,151.9,0.));
#175=CARTESIAN_POINT('',(-12.7,151.4,-1.55530143491714E-15));
#176=CARTESIAN_POINT('Origin',(0.,151.4,0.));
#177=CARTESIAN_POINT('',(-13.7,152.4,1.67776611483187E-15));
#178=CARTESIAN_POINT('Origin',(0.,152.4,0.));
#179=CARTESIAN_POINT('Origin',(1.87036274335208E-15,152.4,4.22942104619107E-16));
#180=CARTESIAN_POINT('',(-16.5,152.4,-2.02066721859313E-15));
#181=CARTESIAN_POINT('Origin',(0.,152.4,0.));
#182=CARTESIAN_POINT('Origin',(0.,0.,0.));
#183=CARTESIAN_POINT('',(-12.7,1.,1.55530143491714E-15));
#184=CARTESIAN_POINT('Origin',(0.,1.,0.));
#185=CARTESIAN_POINT('Origin',(0.,151.9,0.));
#186=CARTESIAN_POINT('',(-17.5,151.4,2.14313189850787E-15));
#187=CARTESIAN_POINT('Origin',(0.,151.4,0.));
#188=CARTESIAN_POINT('Origin',(0.,0.,0.));
#189=CARTESIAN_POINT('',(-17.5,1.,-2.14313189850787E-15));
#190=CARTESIAN_POINT('Origin',(0.,1.,0.));
#191=CARTESIAN_POINT('Origin',(0.,0.5,0.));
#192=CARTESIAN_POINT('',(-13.7,0.,-1.67776611483187E-15));
#193=CARTESIAN_POINT('Origin',(0.,0.,0.));
#194=CARTESIAN_POINT('Origin',(1.87036274335208E-15,0.,4.22942104619107E-16));
#195=CARTESIAN_POINT('',(-16.5,0.,2.02066721859313E-15));
#196=CARTESIAN_POINT('Origin',(0.,0.,0.));
#197=CARTESIAN_POINT('Origin',(0.,0.5,0.));
#198=UNCERTAINTY_MEASURE_WITH_UNIT(LENGTH_MEASURE(0.01),#202,
'DISTANCE_ACCURACY_VALUE',
'Maximum model space distance between geometric entities at asserted c
onnectivities');
#199=UNCERTAINTY_MEASURE_WITH_UNIT(LENGTH_MEASURE(0.01),#202,
'DISTANCE_ACCURACY_VALUE',
'Maximum model space distance between geometric entities at asserted c
onnectivities');
#200=(
GEOMETRIC_REPRESENTATION_CONTEXT(3)
GLOBAL_UNCERTAINTY_ASSIGNED_CONTEXT((#198))
GLOBAL_UNIT_ASSIGNED_CONTEXT((#202,#205,#204))
REPRESENTATION_CONTEXT('','3D')
);
#201=(
GEOMETRIC_REPRESENTATION_CONTEXT(3)
GLOBAL_UNCERTAINTY_ASSIGNED_CONTEXT((#199))
GLOBAL_UNIT_ASSIGNED_CONTEXT((#202,#205,#204))
REPRESENTATION_CONTEXT('','3D')
);
#202=(
LENGTH_UNIT()
NAMED_UNIT(*)
SI_UNIT(.MILLI.,.METRE.)
);
#203=(
LENGTH_UNIT()
NAMED_UNIT(*)
SI_UNIT(.CENTI.,.METRE.)
);
#204=(
NAMED_UNIT(*)
SI_UNIT($,.STERADIAN.)
SOLID_ANGLE_UNIT()
);
#205=(
NAMED_UNIT(*)
PLANE_ANGLE_UNIT()
SI_UNIT($,.RADIAN.)
);
#206=SHAPE_DEFINITION_REPRESENTATION(#207,#208);
#207=PRODUCT_DEFINITION_SHAPE('',$,#210);
#208=SHAPE_REPRESENTATION('',(#122),#200);
#209=PRODUCT_DEFINITION_CONTEXT('part definition',#214,'design');
#210=PRODUCT_DEFINITION('03AT1612','03AT1612',#211,#209);
#211=PRODUCT_DEFINITION_FORMATION('',$,#216);
#212=PRODUCT_RELATED_PRODUCT_CATEGORY('03AT1612','03AT1612',(#216));
#213=APPLICATION_PROTOCOL_DEFINITION('international standard',
'automotive_design',2009,#214);
#214=APPLICATION_CONTEXT(
'Core Data for Automotive Mechanical Design Process');
#215=PRODUCT_CONTEXT('part definition',#214,'mechanical');
#216=PRODUCT('03AT1612','03AT1612',$,(#215));
#217=PRESENTATION_STYLE_ASSIGNMENT((#218));
#218=SURFACE_STYLE_USAGE(.BOTH.,#219);
#219=SURFACE_SIDE_STYLE('',(#220));
#220=SURFACE_STYLE_FILL_AREA(#221);
#221=FILL_AREA_STYLE('',(#222));
#222=FILL_AREA_STYLE_COLOUR('',#223);
#223=COLOUR_RGB('',0.796078431372549,0.603921568627451,0.231372549019608);
ENDSEC;
END-ISO-10303-21;
